0
SECTION
2
HEADER
9
$EXTMIN
10
1461061.796
20
5326051.512
9
$EXTMAX
10
1462239.153
20
5327091.753
9
$LIMMIN
10
1461061.796
20
5326051.512
9
$LIMMAX
10
1462239.153
20
5327091.753
0
ENDSEC
0
SECTION
2
TABLES
0
TABLE
2
STYLE
70
1
0
ENDTAB
0
ENDSEC
0
SECTION
2
ENTITIES
0
POLYLINE
70
8
8
1
62
1
66
1
0
VERTEX
70
32
8
1
10
1461134.106
20
5326725.682
30
0.341
0
VERTEX
70
32
8
1
10
1461134.106
20
5326725.682
30
0.341
0
VERTEX
70
32
8
1
10
1461134.106
20
5326725.682
30
0.341
0
VERTEX
70
32
8
1
10
1461134.106
20
5326725.682
30
0.341
0
SEQEND
8
1
0
POLYLINE
70
8
8
1
62
1
66
1
0
VERTEX
70
32
8
1
10
1461134.106
20
5326725.682
30
0.341
0
VERTEX
70
32
8
1
10
1461134.107
20
5326725.681
30
0.341
0
VERTEX
70
32
8
1
10
1461134.106
20
5326725.682
30
0.341
0
SEQEND
8
1
0
POLYLINE
70
8
8
2
62
1
66
1
0
VERTEX
70
32
8
2
10
1461133.973
20
5326723.882
30
0.841
0
VERTEX
70
32
8
2
10
1461134.285
20
5326723.593
30
0.841
0
VERTEX
70
32
8
2
10
1461138.156
20
5326720.003
30
0.841
0
VERTEX
70
32
8
2
10
1461155.283
20
5326707.745
30
0.841
0
VERTEX
70
32
8
2
10
1461140.819
20
5326724.93
30
0.841
0
VERTEX
70
32
8
2
10
1461134.614
20
5326732.54
30
0.841
0
VERTEX
70
32
8
2
10
1461134.614
20
5326732.54
30
0.841
0
SEQEND
8
2
0
POLYLINE
70
8
8
3
62
1
66
1
0
VERTEX
70
32
8
3
10
1461115.832
20
5326874.239
30
1.341
0
VERTEX
70
32
8
3
10
1461115.928
20
5326874.025
30
1.341
0
VERTEX
70
32
8
3
10
1461116.853
20
5326871.954
30
1.341
0
VERTEX
70
32
8
3
10
1461116.916
20
5326871.814
30
1.341
0
VERTEX
70
32
8
3
10
1461117.164
20
5326871.754
30
1.341
0
VERTEX
70
32
8
3
10
1461119.31
20
5326871.232
30
1.341
0
VERTEX
70
32
8
3
10
1461127.455
20
5326877.046
30
1.341
0
VERTEX
70
32
8
3
10
1461127.736
20
5326877.246
30
1.341
0
VERTEX
70
32
8
3
10
1461137.846
20
5326873.506
30
1.341
0
VERTEX
70
32
8
3
10
1461146.859
20
5326879.465
30
1.341
0
VERTEX
70
32
8
3
10
1461147.159
20
5326879.664
30
1.341
0
VERTEX
70
32
8
3
10
1461143.821
20
5326890.718
30
1.341
0
VERTEX
70
32
8
3
10
1461142.074
20
5326893.366
30
1.341
0
SEQEND
8
3
0
POLYLINE
70
8
8
3
62
1
66
1
0
VERTEX
70
32
8
3
10
1461133.839
20
5326722.082
30
1.341
0
VERTEX
70
32
8
3
10
1461134.464
20
5326721.503
30
1.341
0
VERTEX
70
32
8
3
10
1461142.206
20
5326714.324
30
1.341
0
VERTEX
70
32
8
3
10
1461176.459
20
5326689.81
30
1.341
0
VERTEX
70
32
8
3
10
1461147.532
20
5326724.178
30
1.341
0
VERTEX
70
32
8
3
10
1461135.122
20
5326739.398
30
1.341
0
VERTEX
70
32
8
3
10
1461135.122
20
5326739.398
30
1.341
0
SEQEND
8
3
0
POLYLINE
70
8
8
4
62
1
66
1
0
VERTEX
70
32
8
4
10
1461110.313
20
5326866.883
30
1.841
0
VERTEX
70
32
8
4
10
1461112.45
20
5326862.101
30
1.841
0
VERTEX
70
32
8
4
10
1461112.475
20
5326862.045
30
1.841
0
VERTEX
70
32
8
4
10
1461113.151
20
5326861.881
30
1.841
0
VERTEX
70
32
8
4
10
1461118.984
20
5326860.461
30
1.841
0
VERTEX
70
32
8
4
10
1461123.847
20
5326863.933
30
1.841
0
VERTEX
70
32
8
4
10
1461124.015
20
5326864.053
30
1.841
0
VERTEX
70
32
8
4
10
1461155.453
20
5326852.42
30
1.841
0
VERTEX
70
32
8
4
10
1461158.933
20
5326854.721
30
1.841
0
VERTEX
70
32
8
4
10
1461159.049
20
5326854.798
30
1.841
0
VERTEX
70
32
8
4
10
1461148.698
20
5326889.077
30
1.841
0
VERTEX
70
32
8
4
10
1461143.28
20
5326897.286
30
1.841
0
SEQEND
8
4
0
POLYLINE
70
8
8
4
62
1
66
1
0
VERTEX
70
32
8
4
10
1461132.099
20
5326654.11
30
1.841
0
VERTEX
70
32
8
4
10
1461132.478
20
5326654.177
30
1.841
0
VERTEX
70
32
8
4
10
1461135.358
20
5326654.683
30
1.841
0
VERTEX
70
32
8
4
10
1461135.548
20
5326654.717
30
1.841
0
VERTEX
70
32
8
4
10
1461135.12
20
5326663.924
30
1.841
0
SEQEND
8
4
0
POLYLINE
70
8
8
4
62
1
66
1
0
VERTEX
70
32
8
4
10
1461133.706
20
5326720.282
30
1.841
0
VERTEX
70
32
8
4
10
1461134.643
20
5326719.414
30
1.841
0
VERTEX
70
32
8
4
10
1461146.256
20
5326708.646
30
1.841
0
VERTEX
70
32
8
4
10
1461176.873
20
5326686.733
30
1.841
0
VERTEX
70
32
8
4
10
1461174.704
20
5326687.437
30
1.841
0
VERTEX
70
32
8
4
10
1461146.105
20
5326696.719
30
1.841
0
SEQEND
8
4
0
POLYLINE
70
8
8
4
62
1
66
1
0
VERTEX
70
32
8
4
10
1461141.586
20
5326677.556
30
1.841
0
VERTEX
70
32
8
4
10
1461180.092
20
5326675.554
30
1.841
0
VERTEX
70
32
8
4
10
1461186.506
20
5326670.84
30
1.841
0
VERTEX
70
32
8
4
10
1461186.323
20
5326670.359
30
1.841
0
VERTEX
70
32
8
4
10
1461178.637
20
5326650.172
30
1.841
0
VERTEX
70
32
8
4
10
1461180.597
20
5326652.976
30
1.841
0
VERTEX
70
32
8
4
10
1461190.066
20
5326666.531
30
1.841
0
VERTEX
70
32
8
4
10
1461190.342
20
5326667.417
30
1.841
0
VERTEX
70
32
8
4
10
1461191.663
20
5326671.657
30
1.841
0
VERTEX
70
32
8
4
10
1461195.3
20
5326673.748
30
1.841
0
VERTEX
70
32
8
4
10
1461193.658
20
5326676.277
30
1.841
0
VERTEX
70
32
8
4
10
1461192.421
20
5326678.069
30
1.841
0
VERTEX
70
32
8
4
10
1461154.245
20
5326723.427
30
1.841
0
VERTEX
70
32
8
4
10
1461137.632
20
5326743.8
30
1.841
0
VERTEX
70
32
8
4
10
1461139.358
20
5326751.378
30
1.841
0
VERTEX
70
32
8
4
10
1461136.565
20
5326750.889
30
1.841
0
SEQEND
8
4
0
POLYLINE
70
8
8
5
62
1
66
1
0
VERTEX
70
32
8
5
10
1461073.553
20
5327015.462
30
2.341
0
VERTEX
70
32
8
5
10
1461073.553
20
5327015.462
30
2.341
0
VERTEX
70
32
8
5
10
1461079.284
20
5327022.609
30
2.341
0
VERTEX
70
32
8
5
10
1461064.908
20
5327074.14
30
2.341
0
VERTEX
70
32
8
5
10
1461063.994
20
5327077.416
30
2.341
0
VERTEX
70
32
8
5
10
1461061.796
20
5327091.753
30
2.341
0
SEQEND
8
5
0
POLYLINE
70
8
8
5
62
1
66
1
0
VERTEX
70
32
8
5
10
1461101.101
20
5326934.311
30
2.341
0
VERTEX
70
32
8
5
10
1461102.34
20
5326933.897
30
2.341
0
VERTEX
70
32
8
5
10
1461102.363
20
5326933.89
30
2.341
0
VERTEX
70
32
8
5
10
1461116.83
20
5326929.063
30
2.341
0
VERTEX
70
32
8
5
10
1461118.275
20
5326929.23
30
2.341
0
VERTEX
70
32
8
5
10
1461131.042
20
5326930.702
30
2.341
0
VERTEX
70
32
8
5
10
1461098.519
20
5326967.141
30
2.341
0
SEQEND
8
5
0
POLYLINE
70
8
8
5
62
1
66
1
0
VERTEX
70
32
8
5
10
1461097.12
20
5326504.145
30
2.341
0
VERTEX
70
32
8
5
10
1461102.104
20
5326504.281
30
2.341
0
VERTEX
70
32
8
5
10
1461102.631
20
5326504.295
30
2.341
0
VERTEX
70
32
8
5
10
1461106.065
20
5326506.152
30
2.341
0
SEQEND
8
5
0
POLYLINE
70
8
8
5
62
1
66
1
0
VERTEX
70
32
8
5
10
1461113.158
20
5326851.03
30
2.341
0
VERTEX
70
32
8
5
10
1461118.657
20
5326849.691
30
2.341
0
VERTEX
70
32
8
5
10
1461120.239
20
5326850.82
30
2.341
0
VERTEX
70
32
8
5
10
1461120.294
20
5326850.859
30
2.341
0
VERTEX
70
32
8
5
10
1461145.63
20
5326841.485
30
2.341
0
VERTEX
70
32
8
5
10
1461161.05
20
5326831.871
30
2.341
0
VERTEX
70
32
8
5
10
1461161.601
20
5326831.726
30
2.341
0
VERTEX
70
32
8
5
10
1461166.049
20
5326830.555
30
2.341
0
VERTEX
70
32
8
5
10
1461166.495
20
5326830.877
30
2.341
0
VERTEX
70
32
8
5
10
1461168.796
20
5326832.539
30
2.341
0
VERTEX
70
32
8
5
10
1461174.321
20
5326831.68
30
2.341
0
VERTEX
70
32
8
5
10
1461167.842
20
5326840.184
30
2.341
0
VERTEX
70
32
8
5
10
1461153.574
20
5326887.435
30
2.341
0
VERTEX
70
32
8
5
10
1461144.487
20
5326901.207
30
2.341
0
SEQEND
8
5
0
POLYLINE
70
8
8
5
62
1
66
1
0
VERTEX
70
32
8
5
10
1461140.437
20
5326647.325
30
2.341
0
VERTEX
70
32
8
5
10
1461141.601
20
5326647.53
30
2.341
0
VERTEX
70
32
8
5
10
1461141.625
20
5326647.534
30
2.341
0
VERTEX
70
32
8
5
10
1461141.136
20
5326658.048
30
2.341
0
VERTEX
70
32
8
5
10
1461140.63
20
5326668.942
30
2.341
0
VERTEX
70
32
8
5
10
1461141.091
20
5326669.72
30
2.341
0
VERTEX
70
32
8
5
10
1461168.881
20
5326649.298
30
2.341
0
VERTEX
70
32
8
5
10
1461168.059
20
5326647.14
30
2.341
0
VERTEX
70
32
8
5
10
1461165.691
20
5326640.92
30
2.341
0
SEQEND
8
5
0
POLYLINE
70
8
8
5
62
1
66
1
0
VERTEX
70
32
8
5
10
1461133.573
20
5326718.483
30
2.341
0
VERTEX
70
32
8
5
10
1461134.821
20
5326717.325
30
2.341
0
VERTEX
70
32
8
5
10
1461141.756
20
5326710.895
30
2.341
0
SEQEND
8
5
0
POLYLINE
70
8
8
5
62
1
66
1
0
VERTEX
70
32
8
5
10
1461186.084
20
5326633.916
30
2.341
0
VERTEX
70
32
8
5
10
1461186.092
20
5326633.941
30
2.341
0
VERTEX
70
32
8
5
10
1461192.017
20
5326652.962
30
2.341
0
VERTEX
70
32
8
5
10
1461208.339
20
5326662.344
30
2.341
0
VERTEX
70
32
8
5
10
1461200.967
20
5326673.693
30
2.341
0
VERTEX
70
32
8
5
10
1461195.418
20
5326681.732
30
2.341
0
VERTEX
70
32
8
5
10
1461160.958
20
5326722.675
30
2.341
0
VERTEX
70
32
8
5
10
1461145.962
20
5326741.065
30
2.341
0
VERTEX
70
32
8
5
10
1461154.431
20
5326778.246
30
2.341
0
VERTEX
70
32
8
5
10
1461146.702
20
5326776.894
30
2.341
0
VERTEX
70
32
8
5
10
1461143.5
20
5326776.333
30
2.341
0
VERTEX
70
32
8
5
10
1461143.921
20
5326776.885
30
2.341
0
VERTEX
70
32
8
5
10
1461151.655
20
5326787.017
30
2.341
0
VERTEX
70
32
8
5
10
1461151.897
20
5326787.334
30
2.341
0
SEQEND
8
5
0
POLYLINE
70
8
8
5
62
1
66
1
0
VERTEX
70
32
8
5
10
1461168.5
20
5326786.5
30
2.341
0
VERTEX
70
32
8
5
10
1461168.5
20
5326786.5
30
2.341
0
VERTEX
70
32
8
5
10
1461181.506
20
5326783.338
30
2.341
0
VERTEX
70
32
8
5
10
1461182.359
20
5326783.131
30
2.341
0
VERTEX
70
32
8
5
10
1461192.7
20
5326782.971
30
2.341
0
VERTEX
70
32
8
5
10
1461179.39
20
5326791.28
30
2.341
0
SEQEND
8
5
0
POLYLINE
70
8
8
6
62
1
66
1
0
VERTEX
70
32
8
6
10
1461075.267
20
5327012.144
30
2.841
0
VERTEX
70
32
8
6
10
1461075.267
20
5327012.144
30
2.841
0
VERTEX
70
32
8
6
10
1461090.333
20
5327030.93
30
2.841
0
VERTEX
70
32
8
6
10
1461082.837
20
5327057.797
30
2.841
0
VERTEX
70
32
8
6
10
1461082.361
20
5327059.505
30
2.841
0
VERTEX
70
32
8
6
10
1461077.715
20
5327089.807
30
2.841
0
SEQEND
8
6
0
POLYLINE
70
8
8
6
62
1
66
1
0
VERTEX
70
32
8
6
10
1461092.74
20
5326978.325
30
2.841
0
VERTEX
70
32
8
6
10
1461092.74
20
5326978.325
30
2.841
0
VERTEX
70
32
8
6
10
1461126.3
20
5326940.725
30
2.841
0
VERTEX
70
32
8
6
10
1461144.91
20
5326918.019
30
2.841
0
VERTEX
70
32
8
6
10
1461145.046
20
5326916.795
30
2.841
0
VERTEX
70
32
8
6
10
1461146.477
20
5326903.94
30
2.841
0
VERTEX
70
32
8
6
10
1461147.948
20
5326901.71
30
2.841
0
VERTEX
70
32
8
6
10
1461158.451
20
5326885.793
30
2.841
0
VERTEX
70
32
8
6
10
1461171.392
20
5326842.935
30
2.841
0
VERTEX
70
32
8
6
10
1461195.324
20
5326811.525
30
2.841
0
VERTEX
70
32
8
6
10
1461174.916
20
5326814.698
30
2.841
0
VERTEX
70
32
8
6
10
1461166.417
20
5326808.559
30
2.841
0
VERTEX
70
32
8
6
10
1461164.769
20
5326807.369
30
2.841
0
VERTEX
70
32
8
6
10
1461148.337
20
5326811.696
30
2.841
0
VERTEX
70
32
8
6
10
1461146.302
20
5326812.232
30
2.841
0
VERTEX
70
32
8
6
10
1461136.791
20
5326818.161
30
2.841
0
VERTEX
70
32
8
6
10
1461136.646
20
5326817.928
30
2.841
0
VERTEX
70
32
8
6
10
1461135.082
20
5326815.415
30
2.841
0
VERTEX
70
32
8
6
10
1461135.22
20
5326814.906
30
2.841
0
VERTEX
70
32
8
6
10
1461136.33
20
5326810.805
30
2.841
0
SEQEND
8
6
0
POLYLINE
70
8
8
6
62
1
66
1
0
VERTEX
70
32
8
6
10
1461102.271
20
5326485.691
30
2.841
0
VERTEX
70
32
8
6
10
1461102.72
20
5326485.885
30
2.841
0
VERTEX
70
32
8
6
10
1461102.756
20
5326485.649
30
2.841
0
VERTEX
70
32
8
6
10
1461102.759
20
5326485.629
30
2.841
0
VERTEX
70
32
8
6
10
1461105.566
20
5326486.508
30
2.841
0
VERTEX
70
32
8
6
10
1461113.811
20
5326489.089
30
2.841
0
VERTEX
70
32
8
6
10
1461117.12
20
5326488.795
30
2.841
0
VERTEX
70
32
8
6
10
1461117.602
20
5326488.752
30
2.841
0
VERTEX
70
32
8
6
10
1461117.823
20
5326488.672
30
2.841
0
VERTEX
70
32
8
6
10
1461118.573
20
5326488.401
30
2.841
0
VERTEX
70
32
8
6
10
1461184.481
20
5326422.264
30
2.841
0
VERTEX
70
32
8
6
10
1461183.446
20
5326422.761
30
2.841
0
VERTEX
70
32
8
6
10
1461134.626
20
5326446.182
30
2.841
0
VERTEX
70
32
8
6
10
1461150.396
20
5326436.625
30
2.841
0
VERTEX
70
32
8
6
10
1461181.295
20
5326417.9
30
2.841
0
VERTEX
70
32
8
6
10
1461183.135
20
5326416.777
30
2.841
0
VERTEX
70
32
8
6
10
1461189.25
20
5326413.045
30
2.841
0
VERTEX
70
32
8
6
10
1461191.95
20
5326414.569
30
2.841
0
VERTEX
70
32
8
6
10
1461200.923
20
5326409.123
30
2.841
0
VERTEX
70
32
8
6
10
1461195.664
20
5326414.269
30
2.841
0
VERTEX
70
32
8
6
10
1461193.245
20
5326416.838
30
2.841
0
VERTEX
70
32
8
6
10
1461140.867
20
5326502.293
30
2.841
0
VERTEX
70
32
8
6
10
1461146.071
20
5326503.247
30
2.841
0
VERTEX
70
32
8
6
10
1461146.567
20
5326503.338
30
2.841
0
VERTEX
70
32
8
6
10
1461126.346
20
5326528.497
30
2.841
0
VERTEX
70
32
8
6
10
1461123.574
20
5326527.306
30
2.841
0
VERTEX
70
32
8
6
10
1461123.247
20
5326527.166
30
2.841
0
VERTEX
70
32
8
6
10
1461126.401
20
5326513.447
30
2.841
0
SEQEND
8
6
0
POLYLINE
70
8
8
6
62
1
66
1
0
VERTEX
70
32
8
6
10
1461109.645
20
5326532.211
30
2.841
0
VERTEX
70
32
8
6
10
1461109.531
20
5326533.09
30
2.841
0
SEQEND
8
6
0
POLYLINE
70
8
8
6
62
1
66
1
0
VERTEX
70
32
8
6
10
1461129.396
20
5326626.165
30
2.841
0
VERTEX
70
32
8
6
10
1461129.452
20
5326625.831
30
2.841
0
VERTEX
70
32
8
6
10
1461129.491
20
5326625.603
30
2.841
0
VERTEX
70
32
8
6
10
1461129.985
20
5326622.671
30
2.841
0
VERTEX
70
32
8
6
10
1461138.842
20
5326611.443
30
2.841
0
VERTEX
70
32
8
6
10
1461154.786
20
5326607.235
30
2.841
0
VERTEX
70
32
8
6
10
1461155.019
20
5326607.174
30
2.841
0
SEQEND
8
6
0
POLYLINE
70
8
8
6
62
1
66
1
0
VERTEX
70
32
8
6
10
1461157.004
20
5326605.574
30
2.841
0
VERTEX
70
32
8
6
10
1461153.32
20
5326601.532
30
2.841
0
VERTEX
70
32
8
6
10
1461153.001
20
5326601.182
30
2.841
0
VERTEX
70
32
8
6
10
1461178.992
20
5326584.838
30
2.841
0
VERTEX
70
32
8
6
10
1461193.134
20
5326590.136
30
2.841
0
VERTEX
70
32
8
6
10
1461194.584
20
5326590.679
30
2.841
0
VERTEX
70
32
8
6
10
1461188.711
20
5326605.075
30
2.841
0
VERTEX
70
32
8
6
10
1461195.818
20
5326607.705
30
2.841
0
VERTEX
70
32
8
6
10
1461196.519
20
5326607.964
30
2.841
0
VERTEX
70
32
8
6
10
1461194.369
20
5326614.303
30
2.841
0
SEQEND
8
6
0
POLYLINE
70
8
8
6
62
1
66
1
0
VERTEX
70
32
8
6
10
1461140.1
20
5326502.367
30
2.841
0
VERTEX
70
32
8
6
10
1461138.388
20
5326500.74
30
2.841
0
VERTEX
70
32
8
6
10
1461158.079
20
5326457.08
30
2.841
0
VERTEX
70
32
8
6
10
1461154.152
20
5326460.825
30
2.841
0
VERTEX
70
32
8
6
10
1461122.746
20
5326490.774
30
2.841
0
SEQEND
8
6
0
POLYLINE
70
8
8
6
62
1
66
1
0
VERTEX
70
32
8
6
10
1461134.4
20
5327082.879
30
2.841
0
VERTEX
70
32
8
6
10
1461148.571
20
5327071.001
30
2.841
0
VERTEX
70
32
8
6
10
1461191.9
20
5327067.329
30
2.841
0
VERTEX
70
32
8
6
10
1461196.491
20
5327066.94
30
2.841
0
VERTEX
70
32
8
6
10
1461297.667
20
5326983.676
30
2.841
0
VERTEX
70
32
8
6
10
1461308.263
20
5326975.702
30
2.841
0
VERTEX
70
32
8
6
10
1461302.919
20
5326984.084
30
2.841
0
VERTEX
70
32
8
6
10
1461300.358
20
5326987.974
30
2.841
0
VERTEX
70
32
8
6
10
1461267.997
20
5327058.752
30
2.841
0
VERTEX
70
32
8
6
10
1461331.13
20
5327049.794
30
2.841
0
VERTEX
70
32
8
6
10
1461338.411
20
5327048.761
30
2.841
0
VERTEX
70
32
8
6
10
1461342.204
20
5327045.842
30
2.841
0
VERTEX
70
32
8
6
10
1461359.724
20
5327035.102
30
2.841
0
SEQEND
8
6
0
POLYLINE
70
8
8
6
62
1
66
1
0
VERTEX
70
32
8
6
10
1461147.879
20
5326620.49
30
2.841
0
VERTEX
70
32
8
6
10
1461146.311
20
5326621.211
30
2.841
0
VERTEX
70
32
8
6
10
1461143.182
20
5326622.652
30
2.841
0
SEQEND
8
6
0
POLYLINE
70
8
8
6
62
1
66
1
0
VERTEX
70
32
8
6
10
1461190.795
20
5326629.205
30
2.841
0
VERTEX
70
32
8
6
10
1461192.372
20
5326634.267
30
2.841
0
VERTEX
70
32
8
6
10
1461221.377
20
5326650.941
30
2.841
0
VERTEX
70
32
8
6
10
1461208.277
20
5326671.108
30
2.841
0
VERTEX
70
32
8
6
10
1461198.415
20
5326685.395
30
2.841
0
VERTEX
70
32
8
6
10
1461167.671
20
5326721.923
30
2.841
0
VERTEX
70
32
8
6
10
1461154.292
20
5326738.33
30
2.841
0
VERTEX
70
32
8
6
10
1461163.747
20
5326779.841
30
2.841
0
VERTEX
70
32
8
6
10
1461173.523
20
5326778.946
30
2.841
0
VERTEX
70
32
8
6
10
1461174.4
20
5326778.866
30
2.841
0
VERTEX
70
32
8
6
10
1461186.004
20
5326776.045
30
2.841
0
VERTEX
70
32
8
6
10
1461186.764
20
5326775.86
30
2.841
0
VERTEX
70
32
8
6
10
1461208.911
20
5326775.517
30
2.841
0
VERTEX
70
32
8
6
10
1461180.407
20
5326793.313
30
2.841
0
SEQEND
8
6
0
POLYLINE
70
8
8
7
62
1
66
1
0
VERTEX
70
32
8
7
10
1461076.982
20
5327008.825
30
3.341
0
VERTEX
70
32
8
7
10
1461076.982
20
5327008.825
30
3.341
0
VERTEX
70
32
8
7
10
1461101.381
20
5327039.251
30
3.341
0
VERTEX
70
32
8
7
10
1461100.767
20
5327041.454
30
3.341
0
VERTEX
70
32
8
7
10
1461100.728
20
5327041.594
30
3.341
0
VERTEX
70
32
8
7
10
1461093.635
20
5327087.861
30
3.341
0
SEQEND
8
7
0
POLYLINE
70
8
8
7
62
1
66
1
0
VERTEX
70
32
8
7
10
1461086.962
20
5326989.509
30
3.341
0
VERTEX
70
32
8
7
10
1461086.962
20
5326989.509
30
3.341
0
VERTEX
70
32
8
7
10
1461106.13
20
5326968.034
30
3.341
0
VERTEX
70
32
8
7
10
1461151.174
20
5326913.074
30
3.341
0
VERTEX
70
32
8
7
10
1461151.297
20
5326911.976
30
3.341
0
VERTEX
70
32
8
7
10
1461152.58
20
5326900.438
30
3.341
0
VERTEX
70
32
8
7
10
1461153.901
20
5326898.437
30
3.341
0
VERTEX
70
32
8
7
10
1461163.327
20
5326884.151
30
3.341
0
VERTEX
70
32
8
7
10
1461174.942
20
5326845.686
30
3.341
0
VERTEX
70
32
8
7
10
1461216.328
20
5326791.37
30
3.341
0
VERTEX
70
32
8
7
10
1461181.035
20
5326796.856
30
3.341
0
VERTEX
70
32
8
7
10
1461180.008
20
5326796.114
30
3.341
0
SEQEND
8
7
0
POLYLINE
70
8
8
7
62
1
66
1
0
VERTEX
70
32
8
7
10
1461137.346
20
5326425.038
30
3.341
0
VERTEX
70
32
8
7
10
1461143.731
20
5326421.141
30
3.341
0
VERTEX
70
32
8
7
10
1461175.273
20
5326401.888
30
3.341
0
VERTEX
70
32
8
7
10
1461189.2
20
5326409.748
30
3.341
0
VERTEX
70
32
8
7
10
1461235.48
20
5326381.657
30
3.341
0
VERTEX
70
32
8
7
10
1461208.358
20
5326408.203
30
3.341
0
VERTEX
70
32
8
7
10
1461195.878
20
5326421.453
30
3.341
0
VERTEX
70
32
8
7
10
1461149.213
20
5326497.588
30
3.341
0
VERTEX
70
32
8
7
10
1461153.849
20
5326498.438
30
3.341
0
VERTEX
70
32
8
7
10
1461154.292
20
5326498.519
30
3.341
0
VERTEX
70
32
8
7
10
1461114.457
20
5326548.081
30
3.341
0
VERTEX
70
32
8
7
10
1461132.363
20
5326543.376
30
3.341
0
VERTEX
70
32
8
7
10
1461158.051
20
5326545.341
30
3.341
0
VERTEX
70
32
8
7
10
1461119.346
20
5326590.749
30
3.341
0
VERTEX
70
32
8
7
10
1461119.363
20
5326591.39
30
3.341
0
VERTEX
70
32
8
7
10
1461119.383
20
5326592.086
30
3.341
0
VERTEX
70
32
8
7
10
1461119.388
20
5326592.276
30
3.341
0
SEQEND
8
7
0
POLYLINE
70
8
8
7
62
1
66
1
0
VERTEX
70
32
8
7
10
1461113.4
20
5326483.215
30
3.341
0
VERTEX
70
32
8
7
10
1461119.055
20
5326481.168
30
3.341
0
VERTEX
70
32
8
7
10
1461150.672
20
5326449.442
30
3.341
0
VERTEX
70
32
8
7
10
1461145.334
20
5326452.003
30
3.341
0
VERTEX
70
32
8
7
10
1461121.952
20
5326463.22
30
3.341
0
SEQEND
8
7
0
POLYLINE
70
8
8
7
62
1
66
1
0
VERTEX
70
32
8
7
10
1461116.546
20
5326607.983
30
3.341
0
VERTEX
70
32
8
7
10
1461116.607
20
5326607.62
30
3.341
0
VERTEX
70
32
8
7
10
1461116.677
20
5326607.531
30
3.341
0
VERTEX
70
32
8
7
10
1461116.804
20
5326607.498
30
3.341
0
VERTEX
70
32
8
7
10
1461116.828
20
5326607.492
30
3.341
0
VERTEX
70
32
8
7
10
1461116.792
20
5326607.453
30
3.341
0
VERTEX
70
32
8
7
10
1461116.79
20
5326607.45
30
3.341
0
VERTEX
70
32
8
7
10
1461203.505
20
5326552.916
30
3.341
0
VERTEX
70
32
8
7
10
1461212.159
20
5326556.158
30
3.341
0
VERTEX
70
32
8
7
10
1461213.046
20
5326556.491
30
3.341
0
VERTEX
70
32
8
7
10
1461195.238
20
5326600.146
30
3.341
0
VERTEX
70
32
8
7
10
1461201.752
20
5326602.557
30
3.341
0
VERTEX
70
32
8
7
10
1461202.394
20
5326602.794
30
3.341
0
VERTEX
70
32
8
7
10
1461198.474
20
5326614.354
30
3.341
0
VERTEX
70
32
8
7
10
1461197.883
20
5326616.096
30
3.341
0
VERTEX
70
32
8
7
10
1461201.039
20
5326616.162
30
3.341
0
VERTEX
70
32
8
7
10
1461204.654
20
5326621.989
30
3.341
0
VERTEX
70
32
8
7
10
1461205.078
20
5326622.673
30
3.341
0
VERTEX
70
32
8
7
10
1461234.415
20
5326639.538
30
3.341
0
VERTEX
70
32
8
7
10
1461215.587
20
5326668.524
30
3.341
0
VERTEX
70
32
8
7
10
1461201.412
20
5326689.058
30
3.341
0
VERTEX
70
32
8
7
10
1461174.384
20
5326721.171
30
3.341
0
VERTEX
70
32
8
7
10
1461162.622
20
5326735.596
30
3.341
0
VERTEX
70
32
8
7
10
1461170.934
20
5326772.089
30
3.341
0
VERTEX
70
32
8
7
10
1461179.529
20
5326771.303
30
3.341
0
VERTEX
70
32
8
7
10
1461180.299
20
5326771.232
30
3.341
0
VERTEX
70
32
8
7
10
1461190.501
20
5326768.752
30
3.341
0
VERTEX
70
32
8
7
10
1461191.169
20
5326768.59
30
3.341
0
VERTEX
70
32
8
7
10
1461225.121
20
5326768.064
30
3.341
0
VERTEX
70
32
8
7
10
1461190.849
20
5326789.461
30
3.341
0
VERTEX
70
32
8
7
10
1461181.423
20
5326795.346
30
3.341
0
SEQEND
8
7
0
POLYLINE
70
8
8
7
62
1
66
1
0
VERTEX
70
32
8
7
10
1461131.031
20
5327083.291
30
3.341
0
VERTEX
70
32
8
7
10
1461160.605
20
5327058.502
30
3.341
0
VERTEX
70
32
8
7
10
1461199.712
20
5327055.188
30
3.341
0
VERTEX
70
32
8
7
10
1461203.855
20
5327054.837
30
3.341
0
VERTEX
70
32
8
7
10
1461295.171
20
5326979.687
30
3.341
0
VERTEX
70
32
8
7
10
1461335.022
20
5326949.697
30
3.341
0
VERTEX
70
32
8
7
10
1461314.922
20
5326981.223
30
3.341
0
VERTEX
70
32
8
7
10
1461305.291
20
5326995.853
30
3.341
0
VERTEX
70
32
8
7
10
1461279.383
20
5327052.517
30
3.341
0
VERTEX
70
32
8
7
10
1461329.926
20
5327045.345
30
3.341
0
VERTEX
70
32
8
7
10
1461335.755
20
5327044.518
30
3.341
0
VERTEX
70
32
8
7
10
1461348.801
20
5327034.482
30
3.341
0
VERTEX
70
32
8
7
10
1461409.052
20
5326997.546
30
3.341
0
SEQEND
8
7
0
POLYLINE
70
8
8
8
62
1
66
1
0
VERTEX
70
32
8
8
10
1461078.697
20
5327005.506
30
3.841
0
VERTEX
70
32
8
8
10
1461078.697
20
5327005.506
30
3.841
0
VERTEX
70
32
8
8
10
1461085.436
20
5327013.911
30
3.841
0
VERTEX
70
32
8
8
10
1461119.095
20
5327023.683
30
3.841
0
VERTEX
70
32
8
8
10
1461119.217
20
5327030.339
30
3.841
0
VERTEX
70
32
8
8
10
1461113.265
20
5327061.707
30
3.841
0
VERTEX
70
32
8
8
10
1461113.036
20
5327063.202
30
3.841
0
VERTEX
70
32
8
8
10
1461109.554
20
5327085.916
30
3.841
0
SEQEND
8
8
0
POLYLINE
70
8
8
8
62
1
66
1
0
VERTEX
70
32
8
8
10
1461081.183
20
5327000.693
30
3.841
0
VERTEX
70
32
8
8
10
1461081.183
20
5327000.693
30
3.841
0
VERTEX
70
32
8
8
10
1461085.96
20
5326995.342
30
3.841
0
VERTEX
70
32
8
8
10
1461157.439
20
5326908.129
30
3.841
0
VERTEX
70
32
8
8
10
1461157.547
20
5326907.156
30
3.841
0
VERTEX
70
32
8
8
10
1461158.684
20
5326896.936
30
3.841
0
VERTEX
70
32
8
8
10
1461159.854
20
5326895.164
30
3.841
0
VERTEX
70
32
8
8
10
1461168.203
20
5326882.509
30
3.841
0
VERTEX
70
32
8
8
10
1461178.492
20
5326848.437
30
3.841
0
VERTEX
70
32
8
8
10
1461237.331
20
5326771.214
30
3.841
0
VERTEX
70
32
8
8
10
1461220.042
20
5326773.902
30
3.841
0
VERTEX
70
32
8
8
10
1461225.738
20
5326770.346
30
3.841
0
VERTEX
70
32
8
8
10
1461241.332
20
5326760.61
30
3.841
0
VERTEX
70
32
8
8
10
1461195.575
20
5326761.319
30
3.841
0
VERTEX
70
32
8
8
10
1461194.998
20
5326761.459
30
3.841
0
VERTEX
70
32
8
8
10
1461186.199
20
5326763.598
30
3.841
0
VERTEX
70
32
8
8
10
1461185.534
20
5326763.659
30
3.841
0
VERTEX
70
32
8
8
10
1461178.121
20
5326764.338
30
3.841
0
VERTEX
70
32
8
8
10
1461170.952
20
5326732.861
30
3.841
0
VERTEX
70
32
8
8
10
1461181.097
20
5326720.419
30
3.841
0
VERTEX
70
32
8
8
10
1461204.409
20
5326692.721
30
3.841
0
VERTEX
70
32
8
8
10
1461222.897
20
5326665.94
30
3.841
0
VERTEX
70
32
8
8
10
1461247.454
20
5326628.134
30
3.841
0
VERTEX
70
32
8
8
10
1461224.792
20
5326615.108
30
3.841
0
VERTEX
70
32
8
8
10
1461224.465
20
5326614.579
30
3.841
0
VERTEX
70
32
8
8
10
1461221.673
20
5326610.078
30
3.841
0
VERTEX
70
32
8
8
10
1461204.169
20
5326609.716
30
3.841
0
VERTEX
70
32
8
8
10
1461204.706
20
5326608.132
30
3.841
0
VERTEX
70
32
8
8
10
1461208.269
20
5326597.625
30
3.841
0
VERTEX
70
32
8
8
10
1461207.685
20
5326597.409
30
3.841
0
VERTEX
70
32
8
8
10
1461201.764
20
5326595.218
30
3.841
0
VERTEX
70
32
8
8
10
1461231.509
20
5326522.302
30
3.841
0
VERTEX
70
32
8
8
10
1461231.185
20
5326522.181
30
3.841
0
VERTEX
70
32
8
8
10
1461228.018
20
5326520.994
30
3.841
0
VERTEX
70
32
8
8
10
1461195.952
20
5326541.16
30
3.841
0
VERTEX
70
32
8
8
10
1461195.628
20
5326540.977
30
3.841
0
VERTEX
70
32
8
8
10
1461193.177
20
5326539.588
30
3.841
0
VERTEX
70
32
8
8
10
1461211.388
20
5326518.223
30
3.841
0
VERTEX
70
32
8
8
10
1461201.99
20
5326517.504
30
3.841
0
VERTEX
70
32
8
8
10
1461127.058
20
5326537.194
30
3.841
0
VERTEX
70
32
8
8
10
1461162.016
20
5326493.7
30
3.841
0
VERTEX
70
32
8
8
10
1461161.628
20
5326493.628
30
3.841
0
VERTEX
70
32
8
8
10
1461157.559
20
5326492.882
30
3.841
0
VERTEX
70
32
8
8
10
1461198.511
20
5326426.069
30
3.841
0
VERTEX
70
32
8
8
10
1461221.051
20
5326402.137
30
3.841
0
VERTEX
70
32
8
8
10
1461270.037
20
5326354.191
30
3.841
0
VERTEX
70
32
8
8
10
1461186.45
20
5326404.927
30
3.841
0
VERTEX
70
32
8
8
10
1461161.295
20
5326390.731
30
3.841
0
VERTEX
70
32
8
8
10
1461154.974
20
5326394.59
30
3.841
0
SEQEND
8
8
0
POLYLINE
70
8
8
8
62
1
66
1
0
VERTEX
70
32
8
8
10
1461113.265
20
5327061.707
30
3.841
0
VERTEX
70
32
8
8
10
1461113.265
20
5327061.707
30
3.841
0
SEQEND
8
8
0
POLYLINE
70
8
8
8
62
1
66
1
0
VERTEX
70
32
8
8
10
1461127.661
20
5327083.703
30
3.841
0
VERTEX
70
32
8
8
10
1461172.639
20
5327046.004
30
3.841
0
VERTEX
70
32
8
8
10
1461207.523
20
5327043.047
30
3.841
0
VERTEX
70
32
8
8
10
1461211.219
20
5327042.734
30
3.841
0
VERTEX
70
32
8
8
10
1461292.674
20
5326975.699
30
3.841
0
VERTEX
70
32
8
8
10
1461361.78
20
5326923.692
30
3.841
0
VERTEX
70
32
8
8
10
1461326.924
20
5326978.361
30
3.841
0
VERTEX
70
32
8
8
10
1461310.223
20
5327003.732
30
3.841
0
VERTEX
70
32
8
8
10
1461290.768
20
5327046.282
30
3.841
0
VERTEX
70
32
8
8
10
1461328.722
20
5327040.897
30
3.841
0
VERTEX
70
32
8
8
10
1461333.1
20
5327040.276
30
3.841
0
VERTEX
70
32
8
8
10
1461355.397
20
5327023.122
30
3.841
0
VERTEX
70
32
8
8
10
1461412.524
20
5326988.101
30
3.841
0
VERTEX
70
32
8
8
10
1461423.531
20
5326981.353
30
3.841
0
VERTEX
70
32
8
8
10
1461434.912
20
5326976.658
30
3.841
0
SEQEND
8
8
0
POLYLINE
70
8
8
8
62
1
66
1
0
VERTEX
70
32
8
8
10
1461492.02
20
5326931.386
30
3.841
0
VERTEX
70
32
8
8
10
1461501.6
20
5326924.145
30
3.841
0
VERTEX
70
32
8
8
10
1461514.399
20
5326914.469
30
3.841
0
VERTEX
70
32
8
8
10
1461503.807
20
5326926.28
30
3.841
0
VERTEX
70
32
8
8
10
1461496.224
20
5326933.369
30
3.841
0
SEQEND
8
8
0
POLYLINE
70
8
8
8
62
1
66
1
0
VERTEX
70
32
8
8
10
1461490.306
20
5326966.18
30
3.841
0
VERTEX
70
32
8
8
10
1461495.373
20
5326966.34
30
3.841
0
VERTEX
70
32
8
8
10
1461497.498
20
5326966.407
30
3.841
0
VERTEX
70
32
8
8
10
1461496.787
20
5326968.865
30
3.841
0
SEQEND
8
8
0
POLYLINE
70
8
8
9
62
1
66
1
0
VERTEX
70
32
8
9
10
1461195.471
20
5326337.388
30
4.341
0
VERTEX
70
32
8
9
10
1461193.061
20
5326340.115
30
4.341
0
VERTEX
70
32
8
9
10
1461164.425
20
5326380.206
30
4.341
0
VERTEX
70
32
8
9
10
1461159.831
20
5326386.636
30
4.341
0
VERTEX
70
32
8
9
10
1461183.699
20
5326400.107
30
4.341
0
VERTEX
70
32
8
9
10
1461304.595
20
5326326.725
30
4.341
0
VERTEX
70
32
8
9
10
1461233.744
20
5326396.072
30
4.341
0
VERTEX
70
32
8
9
10
1461201.144
20
5326430.684
30
4.341
0
VERTEX
70
32
8
9
10
1461165.906
20
5326488.177
30
4.341
0
VERTEX
70
32
8
9
10
1461169.406
20
5326488.819
30
4.341
0
VERTEX
70
32
8
9
10
1461169.74
20
5326488.88
30
4.341
0
VERTEX
70
32
8
9
10
1461139.659
20
5326526.307
30
4.341
0
VERTEX
70
32
8
9
10
1461240.571
20
5326499.79
30
4.341
0
VERTEX
70
32
8
9
10
1461256.061
20
5326491.418
30
4.341
0
VERTEX
70
32
8
9
10
1461248.116
20
5326499.741
30
4.341
0
VERTEX
70
32
8
9
10
1461243.275
20
5326504.53
30
4.341
0
VERTEX
70
32
8
9
10
1461208.291
20
5326590.289
30
4.341
0
VERTEX
70
32
8
9
10
1461213.619
20
5326592.261
30
4.341
0
VERTEX
70
32
8
9
10
1461214.144
20
5326592.455
30
4.341
0
VERTEX
70
32
8
9
10
1461210.938
20
5326601.91
30
4.341
0
VERTEX
70
32
8
9
10
1461210.454
20
5326603.335
30
4.341
0
VERTEX
70
32
8
9
10
1461242.306
20
5326603.994
30
4.341
0
VERTEX
70
32
8
9
10
1461244.276
20
5326607.169
30
4.341
0
VERTEX
70
32
8
9
10
1461244.507
20
5326607.542
30
4.341
0
VERTEX
70
32
8
9
10
1461260.492
20
5326616.731
30
4.341
0
VERTEX
70
32
8
9
10
1461230.207
20
5326663.355
30
4.341
0
VERTEX
70
32
8
9
10
1461207.406
20
5326696.384
30
4.341
0
VERTEX
70
32
8
9
10
1461187.809
20
5326719.668
30
4.341
0
VERTEX
70
32
8
9
10
1461179.282
20
5326730.126
30
4.341
0
VERTEX
70
32
8
9
10
1461185.308
20
5326756.586
30
4.341
0
VERTEX
70
32
8
9
10
1461191.54
20
5326756.015
30
4.341
0
VERTEX
70
32
8
9
10
1461192.098
20
5326755.964
30
4.341
0
VERTEX
70
32
8
9
10
1461199.495
20
5326754.166
30
4.341
0
VERTEX
70
32
8
9
10
1461199.98
20
5326754.048
30
4.341
0
VERTEX
70
32
8
9
10
1461253.904
20
5326753.213
30
4.341
0
VERTEX
70
32
8
9
10
1461257.519
20
5326751.989
30
4.341
0
VERTEX
70
32
8
9
10
1461256.107
20
5326754
30
4.341
0
VERTEX
70
32
8
9
10
1461255.36
20
5326754.992
30
4.341
0
VERTEX
70
32
8
9
10
1461253.7
20
5326757.141
30
4.341
0
VERTEX
70
32
8
9
10
1461182.042
20
5326851.188
30
4.341
0
VERTEX
70
32
8
9
10
1461173.08
20
5326880.868
30
4.341
0
VERTEX
70
32
8
9
10
1461165.807
20
5326891.89
30
4.341
0
VERTEX
70
32
8
9
10
1461164.788
20
5326893.434
30
4.341
0
VERTEX
70
32
8
9
10
1461163.797
20
5326902.337
30
4.341
0
VERTEX
70
32
8
9
10
1461163.703
20
5326903.184
30
4.341
0
VERTEX
70
32
8
9
10
1461090.673
20
5326992.29
30
4.341
0
VERTEX
70
32
8
9
10
1461096.22
20
5326993.798
30
4.341
0
VERTEX
70
32
8
9
10
1461137.462
20
5327005.772
30
4.341
0
VERTEX
70
32
8
9
10
1461137.718
20
5327019.736
30
4.341
0
VERTEX
70
32
8
9
10
1461125.733
20
5327082.906
30
4.341
0
VERTEX
70
32
8
9
10
1461184.673
20
5327033.505
30
4.341
0
VERTEX
70
32
8
9
10
1461215.334
20
5327030.906
30
4.341
0
VERTEX
70
32
8
9
10
1461218.583
20
5327030.631
30
4.341
0
VERTEX
70
32
8
9
10
1461290.178
20
5326971.711
30
4.341
0
VERTEX
70
32
8
9
10
1461356.424
20
5326921.856
30
4.341
0
VERTEX
70
32
8
9
10
1461364.306
20
5326916.081
30
4.341
0
VERTEX
70
32
8
9
10
1461385.348
20
5326900.515
30
4.341
0
VERTEX
70
32
8
9
10
1461375.386
20
5326917.32
30
4.341
0
VERTEX
70
32
8
9
10
1461370.081
20
5326926.637
30
4.341
0
VERTEX
70
32
8
9
10
1461338.927
20
5326975.5
30
4.341
0
VERTEX
70
32
8
9
10
1461315.155
20
5327011.611
30
4.341
0
VERTEX
70
32
8
9
10
1461302.153
20
5327040.048
30
4.341
0
VERTEX
70
32
8
9
10
1461327.519
20
5327036.449
30
4.341
0
VERTEX
70
32
8
9
10
1461330.444
20
5327036.034
30
4.341
0
VERTEX
70
32
8
9
10
1461361.993
20
5327011.762
30
4.341
0
VERTEX
70
32
8
9
10
1461408.273
20
5326983.391
30
4.341
0
VERTEX
70
32
8
9
10
1461417.19
20
5326977.924
30
4.341
0
VERTEX
70
32
8
9
10
1461431.725
20
5326971.928
30
4.341
0
VERTEX
70
32
8
9
10
1461434.954
20
5326970.596
30
4.341
0
VERTEX
70
32
8
9
10
1461449.954
20
5326956.966
30
4.341
0
VERTEX
70
32
8
9
10
1461452.882
20
5326954.305
30
4.341
0
VERTEX
70
32
8
9
10
1461458.243
20
5326950.725
30
4.341
0
VERTEX
70
32
8
9
10
1461466.458
20
5326946.798
30
4.341
0
SEQEND
8
9
0
POLYLINE
70
8
8
9
62
1
66
1
0
VERTEX
70
32
8
9
10
1461482.53
20
5326935.382
30
4.341
0
VERTEX
70
32
8
9
10
1461543.605
20
5326889.214
30
4.341
0
VERTEX
70
32
8
9
10
1461552.321
20
5326882.625
30
4.341
0
VERTEX
70
32
8
9
10
1461519.289
20
5326919.457
30
4.341
0
VERTEX
70
32
8
9
10
1461496.544
20
5326940.718
30
4.341
0
VERTEX
70
32
8
9
10
1461495.638
20
5326941.566
30
4.341
0
SEQEND
8
9
0
POLYLINE
70
8
8
9
62
1
66
1
0
VERTEX
70
32
8
9
10
1461494.231
20
5326949.844
30
4.341
0
VERTEX
70
32
8
9
10
1461497.149
20
5326953.584
30
4.341
0
VERTEX
70
32
8
9
10
1461498.255
20
5326955.002
30
4.341
0
VERTEX
70
32
8
9
10
1461511.716
20
5326955.427
30
4.341
0
VERTEX
70
32
8
9
10
1461513.624
20
5326955.487
30
4.341
0
VERTEX
70
32
8
9
10
1461511.639
20
5326962.351
30
4.341
0
SEQEND
8
9
0
POLYLINE
70
8
8
10
62
1
66
1
0
VERTEX
70
32
8
10
10
1461215.586
20
5326315.836
30
4.841
0
VERTEX
70
32
8
10
10
1461193.464
20
5326340.862
30
4.841
0
VERTEX
70
32
8
10
10
1461188.579
20
5326346.389
30
4.841
0
VERTEX
70
32
8
10
10
1461165.239
20
5326379.066
30
4.841
0
VERTEX
70
32
8
10
10
1461161.495
20
5326384.307
30
4.841
0
VERTEX
70
32
8
10
10
1461180.949
20
5326395.286
30
4.841
0
VERTEX
70
32
8
10
10
1461339.152
20
5326299.259
30
4.841
0
VERTEX
70
32
8
10
10
1461246.438
20
5326390.006
30
4.841
0
VERTEX
70
32
8
10
10
1461203.778
20
5326435.299
30
4.841
0
VERTEX
70
32
8
10
10
1461174.252
20
5326483.471
30
4.841
0
VERTEX
70
32
8
10
10
1461177.185
20
5326484.009
30
4.841
0
VERTEX
70
32
8
10
10
1461177.465
20
5326484.061
30
4.841
0
VERTEX
70
32
8
10
10
1461152.26
20
5326515.42
30
4.841
0
VERTEX
70
32
8
10
10
1461236.812
20
5326493.202
30
4.841
0
VERTEX
70
32
8
10
10
1461288.915
20
5326465.041
30
4.841
0
VERTEX
70
32
8
10
10
1461262.193
20
5326493.036
30
4.841
0
VERTEX
70
32
8
10
10
1461245.908
20
5326509.145
30
4.841
0
VERTEX
70
32
8
10
10
1461214.817
20
5326585.361
30
4.841
0
VERTEX
70
32
8
10
10
1461219.552
20
5326587.113
30
4.841
0
VERTEX
70
32
8
10
10
1461220.019
20
5326587.285
30
4.841
0
VERTEX
70
32
8
10
10
1461217.17
20
5326595.688
30
4.841
0
VERTEX
70
32
8
10
10
1461216.74
20
5326596.955
30
4.841
0
VERTEX
70
32
8
10
10
1461262.94
20
5326597.91
30
4.841
0
VERTEX
70
32
8
10
10
1461264.087
20
5326599.759
30
4.841
0
VERTEX
70
32
8
10
10
1461264.221
20
5326599.976
30
4.841
0
VERTEX
70
32
8
10
10
1461273.53
20
5326605.328
30
4.841
0
VERTEX
70
32
8
10
10
1461237.517
20
5326660.771
30
4.841
0
VERTEX
70
32
8
10
10
1461210.403
20
5326700.047
30
4.841
0
VERTEX
70
32
8
10
10
1461194.522
20
5326718.916
30
4.841
0
VERTEX
70
32
8
10
10
1461187.611
20
5326727.391
30
4.841
0
VERTEX
70
32
8
10
10
1461192.495
20
5326748.834
30
4.841
0
VERTEX
70
32
8
10
10
1461197.545
20
5326748.372
30
4.841
0
VERTEX
70
32
8
10
10
1461197.998
20
5326748.33
30
4.841
0
VERTEX
70
32
8
10
10
1461203.992
20
5326746.873
30
4.841
0
VERTEX
70
32
8
10
10
1461204.385
20
5326746.778
30
4.841
0
VERTEX
70
32
8
10
10
1461248.085
20
5326746.101
30
4.841
0
VERTEX
70
32
8
10
10
1461273.586
20
5326737.462
30
4.841
0
VERTEX
70
32
8
10
10
1461263.626
20
5326751.654
30
4.841
0
VERTEX
70
32
8
10
10
1461258.357
20
5326758.656
30
4.841
0
VERTEX
70
32
8
10
10
1461246.644
20
5326773.812
30
4.841
0
VERTEX
70
32
8
10
10
1461185.592
20
5326853.939
30
4.841
0
VERTEX
70
32
8
10
10
1461177.956
20
5326879.226
30
4.841
0
VERTEX
70
32
8
10
10
1461171.76
20
5326888.617
30
4.841
0
VERTEX
70
32
8
10
10
1461170.892
20
5326889.932
30
4.841
0
VERTEX
70
32
8
10
10
1461170.048
20
5326897.517
30
4.841
0
VERTEX
70
32
8
10
10
1461169.967
20
5326898.239
30
4.841
0
VERTEX
70
32
8
10
10
1461107.747
20
5326974.156
30
4.841
0
VERTEX
70
32
8
10
10
1461121.597
20
5326977.922
30
4.841
0
VERTEX
70
32
8
10
10
1461155.829
20
5326987.861
30
4.841
0
VERTEX
70
32
8
10
10
1461156.219
20
5327009.134
30
4.841
0
VERTEX
70
32
8
10
10
1461145.885
20
5327063.604
30
4.841
0
VERTEX
70
32
8
10
10
1461196.708
20
5327021.006
30
4.841
0
VERTEX
70
32
8
10
10
1461223.145
20
5327018.766
30
4.841
0
VERTEX
70
32
8
10
10
1461225.947
20
5327018.528
30
4.841
0
VERTEX
70
32
8
10
10
1461287.681
20
5326967.723
30
4.841
0
VERTEX
70
32
8
10
10
1461344.804
20
5326924.734
30
4.841
0
VERTEX
70
32
8
10
10
1461362.104
20
5326912.057
30
4.841
0
VERTEX
70
32
8
10
10
1461408.293
20
5326877.889
30
4.841
0
VERTEX
70
32
8
10
10
1461386.425
20
5326914.778
30
4.841
0
VERTEX
70
32
8
10
10
1461374.782
20
5326935.228
30
4.841
0
VERTEX
70
32
8
10
10
1461350.93
20
5326972.639
30
4.841
0
VERTEX
70
32
8
10
10
1461320.088
20
5327019.49
30
4.841
0
VERTEX
70
32
8
10
10
1461313.539
20
5327033.813
30
4.841
0
VERTEX
70
32
8
10
10
1461326.315
20
5327032
30
4.841
0
VERTEX
70
32
8
10
10
1461327.788
20
5327031.791
30
4.841
0
VERTEX
70
32
8
10
10
1461368.59
20
5327000.402
30
4.841
0
VERTEX
70
32
8
10
10
1461404.023
20
5326978.68
30
4.841
0
VERTEX
70
32
8
10
10
1461410.849
20
5326974.495
30
4.841
0
VERTEX
70
32
8
10
10
1461421.978
20
5326969.904
30
4.841
0
VERTEX
70
32
8
10
10
1461424.45
20
5326968.885
30
4.841
0
VERTEX
70
32
8
10
10
1461435.934
20
5326958.449
30
4.841
0
VERTEX
70
32
8
10
10
1461438.176
20
5326956.411
30
4.841
0
VERTEX
70
32
8
10
10
1461457.569
20
5326943.46
30
4.841
0
VERTEX
70
32
8
10
10
1461472.224
20
5326936.456
30
4.841
0
VERTEX
70
32
8
10
10
1461475.774
20
5326934.759
30
4.841
0
VERTEX
70
32
8
10
10
1461523.12
20
5326901.521
30
4.841
0
VERTEX
70
32
8
10
10
1461585.609
20
5326854.283
30
4.841
0
VERTEX
70
32
8
10
10
1461590.243
20
5326850.781
30
4.841
0
VERTEX
70
32
8
10
10
1461534.771
20
5326912.634
30
4.841
0
VERTEX
70
32
8
10
10
1461514.613
20
5326931.478
30
4.841
0
VERTEX
70
32
8
10
10
1461509.778
20
5326935.997
30
4.841
0
VERTEX
70
32
8
10
10
1461515.149
20
5326942.88
30
4.841
0
VERTEX
70
32
8
10
10
1461516.129
20
5326944.137
30
4.841
0
VERTEX
70
32
8
10
10
1461528.059
20
5326944.514
30
4.841
0
VERTEX
70
32
8
10
10
1461529.75
20
5326944.567
30
4.841
0
VERTEX
70
32
8
10
10
1461526.49
20
5326955.838
30
4.841
0
SEQEND
8
10
0
POLYLINE
70
8
8
11
62
1
66
1
0
VERTEX
70
32
8
11
10
1461228.284
20
5326303.168
30
5.341
0
VERTEX
70
32
8
11
10
1461228.323
20
5326303.318
30
5.341
0
VERTEX
70
32
8
11
10
1461228.744
20
5326304.962
30
5.341
0
VERTEX
70
32
8
11
10
1461212.459
20
5326320.578
30
5.341
0
VERTEX
70
32
8
11
10
1461187.874
20
5326348.391
30
5.341
0
VERTEX
70
32
8
11
10
1461184.098
20
5326352.663
30
5.341
0
VERTEX
70
32
8
11
10
1461166.053
20
5326377.925
30
5.341
0
VERTEX
70
32
8
11
10
1461163.159
20
5326381.977
30
5.341
0
VERTEX
70
32
8
11
10
1461178.199
20
5326390.465
30
5.341
0
VERTEX
70
32
8
11
10
1461357.433
20
5326281.673
30
5.341
0
VERTEX
70
32
8
11
10
1461367.106
20
5326276.062
30
5.341
0
VERTEX
70
32
8
11
10
1461369.352
20
5326275.369
30
5.341
0
VERTEX
70
32
8
11
10
1461375.523
20
5326273.545
30
5.341
0
VERTEX
70
32
8
11
10
1461367.837
20
5326277.541
30
5.341
0
VERTEX
70
32
8
11
10
1461259.131
20
5326383.94
30
5.341
0
VERTEX
70
32
8
11
10
1461206.411
20
5326439.915
30
5.341
0
VERTEX
70
32
8
11
10
1461182.598
20
5326478.766
30
5.341
0
VERTEX
70
32
8
11
10
1461184.963
20
5326479.2
30
5.341
0
VERTEX
70
32
8
11
10
1461185.189
20
5326479.241
30
5.341
0
VERTEX
70
32
8
11
10
1461164.862
20
5326504.533
30
5.341
0
VERTEX
70
32
8
11
10
1461233.054
20
5326486.614
30
5.341
0
VERTEX
70
32
8
11
10
1461321.769
20
5326438.663
30
5.341
0
VERTEX
70
32
8
11
10
1461276.269
20
5326486.33
30
5.341
0
VERTEX
70
32
8
11
10
1461248.542
20
5326513.761
30
5.341
0
VERTEX
70
32
8
11
10
1461221.344
20
5326580.432
30
5.341
0
VERTEX
70
32
8
11
10
1461225.486
20
5326581.965
30
5.341
0
VERTEX
70
32
8
11
10
1461225.894
20
5326582.116
30
5.341
0
VERTEX
70
32
8
11
10
1461223.402
20
5326589.466
30
5.341
0
VERTEX
70
32
8
11
10
1461223.026
20
5326590.574
30
5.341
0
VERTEX
70
32
8
11
10
1461283.573
20
5326591.826
30
5.341
0
VERTEX
70
32
8
11
10
1461283.898
20
5326592.349
30
5.341
0
VERTEX
70
32
8
11
10
1461283.936
20
5326592.411
30
5.341
0
VERTEX
70
32
8
11
10
1461286.569
20
5326593.924
30
5.341
0
VERTEX
70
32
8
11
10
1461244.827
20
5326658.187
30
5.341
0
VERTEX
70
32
8
11
10
1461213.401
20
5326703.71
30
5.341
0
VERTEX
70
32
8
11
10
1461201.235
20
5326718.164
30
5.341
0
VERTEX
70
32
8
11
10
1461195.941
20
5326724.657
30
5.341
0
VERTEX
70
32
8
11
10
1461199.682
20
5326741.082
30
5.341
0
VERTEX
70
32
8
11
10
1461203.551
20
5326740.728
30
5.341
0
VERTEX
70
32
8
11
10
1461203.898
20
5326740.697
30
5.341
0
VERTEX
70
32
8
11
10
1461208.489
20
5326739.58
30
5.341
0
VERTEX
70
32
8
11
10
1461208.79
20
5326739.507
30
5.341
0
VERTEX
70
32
8
11
10
1461242.266
20
5326738.989
30
5.341
0
VERTEX
70
32
8
11
10
1461289.654
20
5326722.935
30
5.341
0
VERTEX
70
32
8
11
10
1461271.144
20
5326749.308
30
5.341
0
VERTEX
70
32
8
11
10
1461261.354
20
5326762.319
30
5.341
0
VERTEX
70
32
8
11
10
1461239.588
20
5326790.483
30
5.341
0
VERTEX
70
32
8
11
10
1461189.142
20
5326856.69
30
5.341
0
VERTEX
70
32
8
11
10
1461182.833
20
5326877.584
30
5.341
0
VERTEX
70
32
8
11
10
1461177.713
20
5326885.344
30
5.341
0
VERTEX
70
32
8
11
10
1461176.995
20
5326886.431
30
5.341
0
VERTEX
70
32
8
11
10
1461176.298
20
5326892.698
30
5.341
0
VERTEX
70
32
8
11
10
1461176.232
20
5326893.294
30
5.341
0
VERTEX
70
32
8
11
10
1461124.82
20
5326956.023
30
5.341
0
VERTEX
70
32
8
11
10
1461146.973
20
5326962.046
30
5.341
0
VERTEX
70
32
8
11
10
1461174.196
20
5326969.95
30
5.341
0
VERTEX
70
32
8
11
10
1461174.72
20
5326998.531
30
5.341
0
VERTEX
70
32
8
11
10
1461166.036
20
5327044.301
30
5.341
0
VERTEX
70
32
8
11
10
1461208.742
20
5327008.507
30
5.341
0
VERTEX
70
32
8
11
10
1461230.957
20
5327006.625
30
5.341
0
VERTEX
70
32
8
11
10
1461233.31
20
5327006.425
30
5.341
0
VERTEX
70
32
8
11
10
1461285.184
20
5326963.735
30
5.341
0
VERTEX
70
32
8
11
10
1461333.183
20
5326927.612
30
5.341
0
VERTEX
70
32
8
11
10
1461359.903
20
5326908.033
30
5.341
0
VERTEX
70
32
8
11
10
1461431.237
20
5326855.263
30
5.341
0
VERTEX
70
32
8
11
10
1461397.465
20
5326912.235
30
5.341
0
VERTEX
70
32
8
11
10
1461379.483
20
5326943.82
30
5.341
0
VERTEX
70
32
8
11
10
1461362.932
20
5326969.778
30
5.341
0
VERTEX
70
32
8
11
10
1461325.02
20
5327027.369
30
5.341
0
VERTEX
70
32
8
11
10
1461324.924
20
5327027.579
30
5.341
0
VERTEX
70
32
8
11
10
1461325.111
20
5327027.552
30
5.341
0
VERTEX
70
32
8
11
10
1461325.133
20
5327027.549
30
5.341
0
VERTEX
70
32
8
11
10
1461375.186
20
5326989.042
30
5.341
0
VERTEX
70
32
8
11
10
1461399.772
20
5326973.97
30
5.341
0
VERTEX
70
32
8
11
10
1461404.509
20
5326971.066
30
5.341
0
VERTEX
70
32
8
11
10
1461412.23
20
5326967.88
30
5.341
0
VERTEX
70
32
8
11
10
1461413.946
20
5326967.173
30
5.341
0
VERTEX
70
32
8
11
10
1461421.914
20
5326959.932
30
5.341
0
VERTEX
70
32
8
11
10
1461423.47
20
5326958.518
30
5.341
0
VERTEX
70
32
8
11
10
1461456.895
20
5326936.195
30
5.341
0
VERTEX
70
32
8
11
10
1461469.137
20
5326930.344
30
5.341
0
VERTEX
70
32
8
11
10
1461472.103
20
5326928.926
30
5.341
0
VERTEX
70
32
8
11
10
1461620.185
20
5326824.969
30
5.341
0
VERTEX
70
32
8
11
10
1461627.614
20
5326819.353
30
5.341
0
VERTEX
70
32
8
11
10
1461628.165
20
5326818.936
30
5.341
0
VERTEX
70
32
8
11
10
1461550.253
20
5326905.812
30
5.341
0
VERTEX
70
32
8
11
10
1461532.681
20
5326922.238
30
5.341
0
VERTEX
70
32
8
11
10
1461528.467
20
5326926.177
30
5.341
0
VERTEX
70
32
8
11
10
1461533.148
20
5326932.177
30
5.341
0
VERTEX
70
32
8
11
10
1461534.003
20
5326933.272
30
5.341
0
VERTEX
70
32
8
11
10
1461544.402
20
5326933.601
30
5.341
0
VERTEX
70
32
8
11
10
1461545.876
20
5326933.647
30
5.341
0
VERTEX
70
32
8
11
10
1461542.22
20
5326946.285
30
5.341
0
VERTEX
70
32
8
11
10
1461541.342
20
5326949.324
30
5.341
0
SEQEND
8
11
0
POLYLINE
70
8
8
12
62
1
66
1
0
VERTEX
70
32
8
12
10
1461237.893
20
5326294.2
30
5.841
0
VERTEX
70
32
8
12
10
1461238.621
20
5326297.034
30
5.841
0
VERTEX
70
32
8
12
10
1461239.006
20
5326298.533
30
5.841
0
VERTEX
70
32
8
12
10
1461199.653
20
5326336.269
30
5.841
0
VERTEX
70
32
8
12
10
1461182.284
20
5326355.919
30
5.841
0
VERTEX
70
32
8
12
10
1461179.616
20
5326358.938
30
5.841
0
VERTEX
70
32
8
12
10
1461166.868
20
5326376.785
30
5.841
0
VERTEX
70
32
8
12
10
1461164.823
20
5326379.648
30
5.841
0
VERTEX
70
32
8
12
10
1461175.448
20
5326385.645
30
5.841
0
VERTEX
70
32
8
12
10
1461302.077
20
5326308.783
30
5.841
0
VERTEX
70
32
8
12
10
1461365.186
20
5326272.178
30
5.841
0
VERTEX
70
32
8
12
10
1461379.836
20
5326267.655
30
5.841
0
VERTEX
70
32
8
12
10
1461420.1
20
5326255.759
30
5.841
0
VERTEX
70
32
8
12
10
1461369.955
20
5326281.826
30
5.841
0
VERTEX
70
32
8
12
10
1461271.825
20
5326377.874
30
5.841
0
VERTEX
70
32
8
12
10
1461209.044
20
5326444.53
30
5.841
0
VERTEX
70
32
8
12
10
1461190.944
20
5326474.061
30
5.841
0
VERTEX
70
32
8
12
10
1461192.742
20
5326474.39
30
5.841
0
VERTEX
70
32
8
12
10
1461192.914
20
5326474.422
30
5.841
0
VERTEX
70
32
8
12
10
1461177.463
20
5326493.646
30
5.841
0
VERTEX
70
32
8
12
10
1461229.295
20
5326480.026
30
5.841
0
VERTEX
70
32
8
12
10
1461354.624
20
5326412.285
30
5.841
0
VERTEX
70
32
8
12
10
1461290.346
20
5326479.625
30
5.841
0
VERTEX
70
32
8
12
10
1461251.175
20
5326518.376
30
5.841
0
VERTEX
70
32
8
12
10
1461227.87
20
5326575.503
30
5.841
0
VERTEX
70
32
8
12
10
1461231.42
20
5326576.817
30
5.841
0
VERTEX
70
32
8
12
10
1461231.769
20
5326576.946
30
5.841
0
VERTEX
70
32
8
12
10
1461229.634
20
5326583.244
30
5.841
0
VERTEX
70
32
8
12
10
1461229.312
20
5326584.194
30
5.841
0
VERTEX
70
32
8
12
10
1461289.434
20
5326585.437
30
5.841
0
VERTEX
70
32
8
12
10
1461322.199
20
5326564.687
30
5.841
0
VERTEX
70
32
8
12
10
1461301.345
20
5326584.854
30
5.841
0
VERTEX
70
32
8
12
10
1461293.306
20
5326592.222
30
5.841
0
VERTEX
70
32
8
12
10
1461252.136
20
5326655.602
30
5.841
0
VERTEX
70
32
8
12
10
1461216.398
20
5326707.373
30
5.841
0
VERTEX
70
32
8
12
10
1461207.948
20
5326717.412
30
5.841
0
VERTEX
70
32
8
12
10
1461204.271
20
5326721.922
30
5.841
0
VERTEX
70
32
8
12
10
1461206.869
20
5326733.331
30
5.841
0
VERTEX
70
32
8
12
10
1461209.556
20
5326733.085
30
5.841
0
VERTEX
70
32
8
12
10
1461209.797
20
5326733.063
30
5.841
0
VERTEX
70
32
8
12
10
1461212.987
20
5326732.287
30
5.841
0
VERTEX
70
32
8
12
10
1461213.196
20
5326732.237
30
5.841
0
VERTEX
70
32
8
12
10
1461236.446
20
5326731.876
30
5.841
0
VERTEX
70
32
8
12
10
1461305.722
20
5326708.408
30
5.841
0
VERTEX
70
32
8
12
10
1461278.663
20
5326746.962
30
5.841
0
VERTEX
70
32
8
12
10
1461264.352
20
5326765.982
30
5.841
0
VERTEX
70
32
8
12
10
1461232.532
20
5326807.154
30
5.841
0
VERTEX
70
32
8
12
10
1461192.692
20
5326859.441
30
5.841
0
VERTEX
70
32
8
12
10
1461187.709
20
5326875.942
30
5.841
0
VERTEX
70
32
8
12
10
1461183.666
20
5326882.07
30
5.841
0
VERTEX
70
32
8
12
10
1461183.099
20
5326882.929
30
5.841
0
VERTEX
70
32
8
12
10
1461182.549
20
5326887.878
30
5.841
0
VERTEX
70
32
8
12
10
1461182.496
20
5326888.349
30
5.841
0
VERTEX
70
32
8
12
10
1461141.894
20
5326937.889
30
5.841
0
VERTEX
70
32
8
12
10
1461172.349
20
5326946.17
30
5.841
0
VERTEX
70
32
8
12
10
1461192.562
20
5326952.039
30
5.841
0
VERTEX
70
32
8
12
10
1461193.221
20
5326987.929
30
5.841
0
VERTEX
70
32
8
12
10
1461186.188
20
5327024.998
30
5.841
0
VERTEX
70
32
8
12
10
1461220.776
20
5326996.009
30
5.841
0
VERTEX
70
32
8
12
10
1461238.768
20
5326994.484
30
5.841
0
VERTEX
70
32
8
12
10
1461240.674
20
5326994.322
30
5.841
0
VERTEX
70
32
8
12
10
1461282.688
20
5326959.747
30
5.841
0
VERTEX
70
32
8
12
10
1461321.563
20
5326930.491
30
5.841
0
VERTEX
70
32
8
12
10
1461357.701
20
5326904.01
30
5.841
0
VERTEX
70
32
8
12
10
1461421.95
20
5326856.482
30
5.841
0
VERTEX
70
32
8
12
10
1461430.798
20
5326850.042
30
5.841
0
VERTEX
70
32
8
12
10
1461485.951
20
5326809.938
30
5.841
0
VERTEX
70
32
8
12
10
1461450.431
20
5326845.526
30
5.841
0
VERTEX
70
32
8
12
10
1461436.508
20
5326862.454
30
5.841
0
VERTEX
70
32
8
12
10
1461408.505
20
5326909.693
30
5.841
0
VERTEX
70
32
8
12
10
1461384.183
20
5326952.411
30
5.841
0
VERTEX
70
32
8
12
10
1461374.935
20
5326966.917
30
5.841
0
VERTEX
70
32
8
12
10
1461353.551
20
5326999.401
30
5.841
0
VERTEX
70
32
8
12
10
1461381.782
20
5326977.682
30
5.841
0
VERTEX
70
32
8
12
10
1461395.521
20
5326969.259
30
5.841
0
VERTEX
70
32
8
12
10
1461398.168
20
5326967.637
30
5.841
0
VERTEX
70
32
8
12
10
1461402.483
20
5326965.857
30
5.841
0
VERTEX
70
32
8
12
10
1461403.442
20
5326965.461
30
5.841
0
VERTEX
70
32
8
12
10
1461407.895
20
5326961.415
30
5.841
0
VERTEX
70
32
8
12
10
1461408.764
20
5326960.625
30
5.841
0
VERTEX
70
32
8
12
10
1461456.221
20
5326928.93
30
5.841
0
VERTEX
70
32
8
12
10
1461466.05
20
5326924.232
30
5.841
0
VERTEX
70
32
8
12
10
1461468.432
20
5326923.094
30
5.841
0
VERTEX
70
32
8
12
10
1461601.787
20
5326829.475
30
5.841
0
VERTEX
70
32
8
12
10
1461631.23
20
5326810.489
30
5.841
0
VERTEX
70
32
8
12
10
1461640.55
20
5326808.671
30
5.841
0
VERTEX
70
32
8
12
10
1461657.976
20
5326805.01
30
5.841
0
VERTEX
70
32
8
12
10
1461636.16
20
5326820.462
30
5.841
0
VERTEX
70
32
8
12
10
1461565.734
20
5326898.989
30
5.841
0
VERTEX
70
32
8
12
10
1461550.749
20
5326912.997
30
5.841
0
VERTEX
70
32
8
12
10
1461547.155
20
5326916.357
30
5.841
0
VERTEX
70
32
8
12
10
1461551.147
20
5326921.474
30
5.841
0
VERTEX
70
32
8
12
10
1461551.876
20
5326922.408
30
5.841
0
VERTEX
70
32
8
12
10
1461560.745
20
5326922.688
30
5.841
0
VERTEX
70
32
8
12
10
1461562.002
20
5326922.727
30
5.841
0
VERTEX
70
32
8
12
10
1461558.885
20
5326933.505
30
5.841
0
VERTEX
70
32
8
12
10
1461557.651
20
5326937.769
30
5.841
0
VERTEX
70
32
8
12
10
1461593.93
20
5326929.742
30
5.841
0
SEQEND
8
12
0
POLYLINE
70
8
8
13
62
1
66
1
0
VERTEX
70
32
8
13
10
1461247.503
20
5326285.231
30
6.341
0
VERTEX
70
32
8
13
10
1461248.919
20
5326290.75
30
6.341
0
VERTEX
70
32
8
13
10
1461249.267
20
5326292.105
30
6.341
0
VERTEX
70
32
8
13
10
1461186.848
20
5326351.961
30
6.341
0
VERTEX
70
32
8
13
10
1461176.694
20
5326363.447
30
6.341
0
VERTEX
70
32
8
13
10
1461175.134
20
5326365.212
30
6.341
0
VERTEX
70
32
8
13
10
1461167.682
20
5326375.645
30
6.341
0
VERTEX
70
32
8
13
10
1461166.487
20
5326377.319
30
6.341
0
VERTEX
70
32
8
13
10
1461172.698
20
5326380.824
30
6.341
0
VERTEX
70
32
8
13
10
1461246.722
20
5326335.893
30
6.341
0
VERTEX
70
32
8
13
10
1461363.267
20
5326268.294
30
6.341
0
VERTEX
70
32
8
13
10
1461390.321
20
5326259.941
30
6.341
0
VERTEX
70
32
8
13
10
1461464.677
20
5326237.972
30
6.341
0
VERTEX
70
32
8
13
10
1461372.073
20
5326286.111
30
6.341
0
VERTEX
70
32
8
13
10
1461284.518
20
5326371.808
30
6.341
0
VERTEX
70
32
8
13
10
1461211.677
20
5326449.146
30
6.341
0
VERTEX
70
32
8
13
10
1461199.29
20
5326469.355
30
6.341
0
VERTEX
70
32
8
13
10
1461200.521
20
5326469.581
30
6.341
0
VERTEX
70
32
8
13
10
1461200.638
20
5326469.602
30
6.341
0
VERTEX
70
32
8
13
10
1461190.064
20
5326482.759
30
6.341
0
VERTEX
70
32
8
13
10
1461225.536
20
5326473.437
30
6.341
0
VERTEX
70
32
8
13
10
1461387.478
20
5326385.908
30
6.341
0
VERTEX
70
32
8
13
10
1461304.422
20
5326472.92
30
6.341
0
VERTEX
70
32
8
13
10
1461253.808
20
5326522.992
30
6.341
0
VERTEX
70
32
8
13
10
1461234.397
20
5326570.575
30
6.341
0
VERTEX
70
32
8
13
10
1461237.353
20
5326571.669
30
6.341
0
VERTEX
70
32
8
13
10
1461237.645
20
5326571.776
30
6.341
0
VERTEX
70
32
8
13
10
1461235.866
20
5326577.023
30
6.341
0
VERTEX
70
32
8
13
10
1461235.597
20
5326577.813
30
6.341
0
VERTEX
70
32
8
13
10
1461285.676
20
5326578.849
30
6.341
0
VERTEX
70
32
8
13
10
1461372.541
20
5326523.837
30
6.341
0
VERTEX
70
32
8
13
10
1461317.252
20
5326577.302
30
6.341
0
VERTEX
70
32
8
13
10
1461295.939
20
5326596.838
30
6.341
0
VERTEX
70
32
8
13
10
1461259.446
20
5326653.018
30
6.341
0
VERTEX
70
32
8
13
10
1461219.395
20
5326711.036
30
6.341
0
VERTEX
70
32
8
13
10
1461214.661
20
5326716.661
30
6.341
0
VERTEX
70
32
8
13
10
1461212.601
20
5326719.187
30
6.341
0
VERTEX
70
32
8
13
10
1461214.057
20
5326725.579
30
6.341
0
VERTEX
70
32
8
13
10
1461215.562
20
5326725.441
30
6.341
0
VERTEX
70
32
8
13
10
1461215.697
20
5326725.429
30
6.341
0
VERTEX
70
32
8
13
10
1461217.484
20
5326724.994
30
6.341
0
VERTEX
70
32
8
13
10
1461217.601
20
5326724.966
30
6.341
0
VERTEX
70
32
8
13
10
1461230.627
20
5326724.764
30
6.341
0
VERTEX
70
32
8
13
10
1461321.789
20
5326693.881
30
6.341
0
VERTEX
70
32
8
13
10
1461286.182
20
5326744.616
30
6.341
0
VERTEX
70
32
8
13
10
1461267.349
20
5326769.645
30
6.341
0
VERTEX
70
32
8
13
10
1461225.475
20
5326823.825
30
6.341
0
VERTEX
70
32
8
13
10
1461196.242
20
5326862.192
30
6.341
0
VERTEX
70
32
8
13
10
1461192.586
20
5326874.3
30
6.341
0
VERTEX
70
32
8
13
10
1461189.619
20
5326878.797
30
6.341
0
VERTEX
70
32
8
13
10
1461189.203
20
5326879.427
30
6.341
0
VERTEX
70
32
8
13
10
1461188.799
20
5326883.059
30
6.341
0
VERTEX
70
32
8
13
10
1461188.76
20
5326883.404
30
6.341
0
VERTEX
70
32
8
13
10
1461158.967
20
5326919.756
30
6.341
0
VERTEX
70
32
8
13
10
1461197.726
20
5326930.294
30
6.341
0
VERTEX
70
32
8
13
10
1461210.929
20
5326934.128
30
6.341
0
VERTEX
70
32
8
13
10
1461211.722
20
5326977.326
30
6.341
0
VERTEX
70
32
8
13
10
1461206.34
20
5327005.696
30
6.341
0
VERTEX
70
32
8
13
10
1461232.81
20
5326983.51
30
6.341
0
VERTEX
70
32
8
13
10
1461246.579
20
5326982.343
30
6.341
0
VERTEX
70
32
8
13
10
1461248.038
20
5326982.219
30
6.341
0
VERTEX
70
32
8
13
10
1461280.191
20
5326955.758
30
6.341
0
VERTEX
70
32
8
13
10
1461309.942
20
5326933.369
30
6.341
0
VERTEX
70
32
8
13
10
1461355.5
20
5326899.986
30
6.341
0
VERTEX
70
32
8
13
10
1461410.648
20
5326859.19
30
6.341
0
VERTEX
70
32
8
13
10
1461428.896
20
5326845.909
30
6.341
0
VERTEX
70
32
8
13
10
1461542.649
20
5326763.194
30
6.341
0
VERTEX
70
32
8
13
10
1461469.39
20
5326836.594
30
6.341
0
VERTEX
70
32
8
13
10
1461440.673
20
5326871.508
30
6.341
0
VERTEX
70
32
8
13
10
1461419.544
20
5326907.15
30
6.341
0
VERTEX
70
32
8
13
10
1461388.884
20
5326961.003
30
6.341
0
VERTEX
70
32
8
13
10
1461386.937
20
5326964.056
30
6.341
0
VERTEX
70
32
8
13
10
1461382.437
20
5326970.893
30
6.341
0
VERTEX
70
32
8
13
10
1461388.379
20
5326966.322
30
6.341
0
VERTEX
70
32
8
13
10
1461391.27
20
5326964.549
30
6.341
0
VERTEX
70
32
8
13
10
1461391.828
20
5326964.207
30
6.341
0
VERTEX
70
32
8
13
10
1461392.736
20
5326963.833
30
6.341
0
VERTEX
70
32
8
13
10
1461392.938
20
5326963.749
30
6.341
0
VERTEX
70
32
8
13
10
1461393.875
20
5326962.898
30
6.341
0
VERTEX
70
32
8
13
10
1461394.058
20
5326962.731
30
6.341
0
VERTEX
70
32
8
13
10
1461455.547
20
5326921.665
30
6.341
0
VERTEX
70
32
8
13
10
1461462.963
20
5326918.121
30
6.341
0
VERTEX
70
32
8
13
10
1461464.76
20
5326917.262
30
6.341
0
VERTEX
70
32
8
13
10
1461565.379
20
5326846.625
30
6.341
0
VERTEX
70
32
8
13
10
1461628.859
20
5326805.69
30
6.341
0
VERTEX
70
32
8
13
10
1461648.951
20
5326801.771
30
6.341
0
VERTEX
70
32
8
13
10
1461686.523
20
5326793.879
30
6.341
0
VERTEX
70
32
8
13
10
1461639.486
20
5326827.193
30
6.341
0
VERTEX
70
32
8
13
10
1461581.216
20
5326892.167
30
6.341
0
VERTEX
70
32
8
13
10
1461568.817
20
5326903.757
30
6.341
0
VERTEX
70
32
8
13
10
1461565.843
20
5326906.537
30
6.341
0
VERTEX
70
32
8
13
10
1461569.147
20
5326910.77
30
6.341
0
VERTEX
70
32
8
13
10
1461569.75
20
5326911.543
30
6.341
0
VERTEX
70
32
8
13
10
1461577.088
20
5326911.775
30
6.341
0
VERTEX
70
32
8
13
10
1461578.128
20
5326911.808
30
6.341
0
VERTEX
70
32
8
13
10
1461575.549
20
5326920.725
30
6.341
0
VERTEX
70
32
8
13
10
1461574.528
20
5326924.253
30
6.341
0
VERTEX
70
32
8
13
10
1461619.447
20
5326914.315
30
6.341
0
VERTEX
70
32
8
13
10
1461636.971
20
5326910.438
30
6.341
0
VERTEX
70
32
8
13
10
1461702.999
20
5326886.166
30
6.341
0
VERTEX
70
32
8
13
10
1461723.642
20
5326878.578
30
6.341
0
VERTEX
70
32
8
13
10
1461733.889
20
5326876.778
30
6.341
0
VERTEX
70
32
8
13
10
1461739.849
20
5326876.51
30
6.341
0
SEQEND
8
13
0
POLYLINE
70
8
8
14
62
1
66
1
0
VERTEX
70
32
8
14
10
1461262.082
20
5326272.92
30
6.841
0
VERTEX
70
32
8
14
10
1461261.841
20
5326273.208
30
6.841
0
VERTEX
70
32
8
14
10
1461257.625
20
5326278.264
30
6.841
0
VERTEX
70
32
8
14
10
1461259.218
20
5326284.467
30
6.841
0
VERTEX
70
32
8
14
10
1461259.528
20
5326285.676
30
6.841
0
VERTEX
70
32
8
14
10
1461174.042
20
5326367.652
30
6.841
0
VERTEX
70
32
8
14
10
1461171.104
20
5326370.976
30
6.841
0
VERTEX
70
32
8
14
10
1461170.653
20
5326371.486
30
6.841
0
VERTEX
70
32
8
14
10
1461168.497
20
5326374.505
30
6.841
0
VERTEX
70
32
8
14
10
1461168.151
20
5326374.989
30
6.841
0
VERTEX
70
32
8
14
10
1461169.948
20
5326376.003
30
6.841
0
VERTEX
70
32
8
14
10
1461191.366
20
5326363.003
30
6.841
0
VERTEX
70
32
8
14
10
1461361.347
20
5326264.409
30
6.841
0
VERTEX
70
32
8
14
10
1461400.805
20
5326252.227
30
6.841
0
VERTEX
70
32
8
14
10
1461509.254
20
5326220.186
30
6.841
0
VERTEX
70
32
8
14
10
1461374.191
20
5326290.397
30
6.841
0
VERTEX
70
32
8
14
10
1461297.211
20
5326365.742
30
6.841
0
VERTEX
70
32
8
14
10
1461214.31
20
5326453.761
30
6.841
0
VERTEX
70
32
8
14
10
1461207.636
20
5326464.65
30
6.841
0
VERTEX
70
32
8
14
10
1461208.299
20
5326464.771
30
6.841
0
VERTEX
70
32
8
14
10
1461208.363
20
5326464.783
30
6.841
0
VERTEX
70
32
8
14
10
1461202.665
20
5326471.871
30
6.841
0
VERTEX
70
32
8
14
10
1461221.777
20
5326466.849
30
6.841
0
VERTEX
70
32
8
14
10
1461376.27
20
5326383.346
30
6.841
0
VERTEX
70
32
8
14
10
1461410.993
20
5326364.862
30
6.841
0
VERTEX
70
32
8
14
10
1461415.112
20
5326363.895
30
6.841
0
VERTEX
70
32
8
14
10
1461421.475
20
5326362.556
30
6.841
0
VERTEX
70
32
8
14
10
1461412.443
20
5326367.796
30
6.841
0
VERTEX
70
32
8
14
10
1461318.498
20
5326466.214
30
6.841
0
VERTEX
70
32
8
14
10
1461256.441
20
5326527.607
30
6.841
0
VERTEX
70
32
8
14
10
1461240.923
20
5326565.646
30
6.841
0
VERTEX
70
32
8
14
10
1461243.287
20
5326566.521
30
6.841
0
VERTEX
70
32
8
14
10
1461243.52
20
5326566.607
30
6.841
0
VERTEX
70
32
8
14
10
1461242.098
20
5326570.801
30
6.841
0
VERTEX
70
32
8
14
10
1461241.883
20
5326571.433
30
6.841
0
VERTEX
70
32
8
14
10
1461281.917
20
5326572.261
30
6.841
0
VERTEX
70
32
8
14
10
1461422.883
20
5326482.987
30
6.841
0
VERTEX
70
32
8
14
10
1461333.159
20
5326569.75
30
6.841
0
VERTEX
70
32
8
14
10
1461298.572
20
5326601.453
30
6.841
0
VERTEX
70
32
8
14
10
1461266.756
20
5326650.433
30
6.841
0
VERTEX
70
32
8
14
10
1461222.392
20
5326714.699
30
6.841
0
VERTEX
70
32
8
14
10
1461221.374
20
5326715.909
30
6.841
0
VERTEX
70
32
8
14
10
1461220.931
20
5326716.452
30
6.841
0
VERTEX
70
32
8
14
10
1461221.244
20
5326717.827
30
6.841
0
VERTEX
70
32
8
14
10
1461221.568
20
5326717.797
30
6.841
0
VERTEX
70
32
8
14
10
1461221.597
20
5326717.795
30
6.841
0
VERTEX
70
32
8
14
10
1461221.981
20
5326717.701
30
6.841
0
VERTEX
70
32
8
14
10
1461222.006
20
5326717.695
30
6.841
0
VERTEX
70
32
8
14
10
1461224.808
20
5326717.652
30
6.841
0
VERTEX
70
32
8
14
10
1461337.857
20
5326679.354
30
6.841
0
VERTEX
70
32
8
14
10
1461293.701
20
5326742.271
30
6.841
0
VERTEX
70
32
8
14
10
1461270.346
20
5326773.308
30
6.841
0
VERTEX
70
32
8
14
10
1461218.419
20
5326840.496
30
6.841
0
VERTEX
70
32
8
14
10
1461199.792
20
5326864.943
30
6.841
0
VERTEX
70
32
8
14
10
1461197.462
20
5326872.658
30
6.841
0
VERTEX
70
32
8
14
10
1461195.572
20
5326875.524
30
6.841
0
VERTEX
70
32
8
14
10
1461195.307
20
5326875.925
30
6.841
0
VERTEX
70
32
8
14
10
1461195.049
20
5326878.239
30
6.841
0
VERTEX
70
32
8
14
10
1461195.025
20
5326878.46
30
6.841
0
VERTEX
70
32
8
14
10
1461176.041
20
5326901.622
30
6.841
0
VERTEX
70
32
8
14
10
1461223.102
20
5326914.418
30
6.841
0
VERTEX
70
32
8
14
10
1461229.296
20
5326916.217
30
6.841
0
VERTEX
70
32
8
14
10
1461230.223
20
5326966.724
30
6.841
0
VERTEX
70
32
8
14
10
1461226.491
20
5326986.393
30
6.841
0
VERTEX
70
32
8
14
10
1461244.844
20
5326971.011
30
6.841
0
VERTEX
70
32
8
14
10
1461254.391
20
5326970.202
30
6.841
0
VERTEX
70
32
8
14
10
1461255.402
20
5326970.116
30
6.841
0
VERTEX
70
32
8
14
10
1461277.695
20
5326951.77
30
6.841
0
VERTEX
70
32
8
14
10
1461298.322
20
5326936.247
30
6.841
0
VERTEX
70
32
8
14
10
1461353.298
20
5326895.962
30
6.841
0
VERTEX
70
32
8
14
10
1461399.346
20
5326861.898
30
6.841
0
VERTEX
70
32
8
14
10
1461426.995
20
5326841.776
30
6.841
0
VERTEX
70
32
8
14
10
1461585.039
20
5326726.855
30
6.841
0
VERTEX
70
32
8
14
10
1461588.546
20
5326724.121
30
6.841
0
VERTEX
70
32
8
14
10
1461590.457
20
5326723.785
30
6.841
0
VERTEX
70
32
8
14
10
1461593.664
20
5326723.172
30
6.841
0
VERTEX
70
32
8
14
10
1461589.588
20
5326726.229
30
6.841
0
VERTEX
70
32
8
14
10
1461488.35
20
5326827.662
30
6.841
0
VERTEX
70
32
8
14
10
1461444.838
20
5326880.561
30
6.841
0
VERTEX
70
32
8
14
10
1461430.584
20
5326904.608
30
6.841
0
VERTEX
70
32
8
14
10
1461406.686
20
5326946.582
30
6.841
0
VERTEX
70
32
8
14
10
1461454.873
20
5326914.4
30
6.841
0
VERTEX
70
32
8
14
10
1461459.877
20
5326912.009
30
6.841
0
VERTEX
70
32
8
14
10
1461461.089
20
5326911.43
30
6.841
0
VERTEX
70
32
8
14
10
1461528.971
20
5326863.774
30
6.841
0
VERTEX
70
32
8
14
10
1461626.488
20
5326800.892
30
6.841
0
VERTEX
70
32
8
14
10
1461657.353
20
5326794.871
30
6.841
0
VERTEX
70
32
8
14
10
1461715.069
20
5326782.748
30
6.841
0
VERTEX
70
32
8
14
10
1461642.813
20
5326833.924
30
6.841
0
VERTEX
70
32
8
14
10
1461596.698
20
5326885.344
30
6.841
0
VERTEX
70
32
8
14
10
1461586.885
20
5326894.516
30
6.841
0
VERTEX
70
32
8
14
10
1461584.532
20
5326896.716
30
6.841
0
VERTEX
70
32
8
14
10
1461587.146
20
5326900.067
30
6.841
0
VERTEX
70
32
8
14
10
1461587.623
20
5326900.678
30
6.841
0
VERTEX
70
32
8
14
10
1461593.431
20
5326900.862
30
6.841
0
VERTEX
70
32
8
14
10
1461594.254
20
5326900.888
30
6.841
0
VERTEX
70
32
8
14
10
1461592.213
20
5326907.945
30
6.841
0
VERTEX
70
32
8
14
10
1461591.405
20
5326910.737
30
6.841
0
VERTEX
70
32
8
14
10
1461626.954
20
5326902.872
30
6.841
0
VERTEX
70
32
8
14
10
1461640.822
20
5326899.804
30
6.841
0
VERTEX
70
32
8
14
10
1461693.076
20
5326880.595
30
6.841
0
VERTEX
70
32
8
14
10
1461709.413
20
5326874.59
30
6.841
0
VERTEX
70
32
8
14
10
1461740.919
20
5326869.055
30
6.841
0
VERTEX
70
32
8
14
10
1461759.246
20
5326868.232
30
6.841
0
SEQEND
8
14
0
POLYLINE
70
8
8
15
62
1
66
1
0
VERTEX
70
32
8
15
10
1461280.201
20
5326258.229
30
7.341
0
VERTEX
70
32
8
15
10
1461271.826
20
5326268.272
30
7.341
0
VERTEX
70
32
8
15
10
1461268.114
20
5326272.722
30
7.341
0
VERTEX
70
32
8
15
10
1461269.516
20
5326278.183
30
7.341
0
VERTEX
70
32
8
15
10
1461269.789
20
5326279.248
30
7.341
0
VERTEX
70
32
8
15
10
1461181.985
20
5326363.446
30
7.341
0
VERTEX
70
32
8
15
10
1461359.427
20
5326260.525
30
7.341
0
VERTEX
70
32
8
15
10
1461411.29
20
5326244.513
30
7.341
0
VERTEX
70
32
8
15
10
1461545.166
20
5326204.959
30
7.341
0
VERTEX
70
32
8
15
10
1461550.264
20
5326203.833
30
7.341
0
VERTEX
70
32
8
15
10
1461550.264
20
5326203.833
30
7.341
0
VERTEX
70
32
8
15
10
1461547.498
20
5326206.295
30
7.341
0
VERTEX
70
32
8
15
10
1461545.785
20
5326206.549
30
7.341
0
VERTEX
70
32
8
15
10
1461540.947
20
5326209.097
30
7.341
0
VERTEX
70
32
8
15
10
1461376.308
20
5326294.682
30
7.341
0
VERTEX
70
32
8
15
10
1461309.905
20
5326359.677
30
7.341
0
VERTEX
70
32
8
15
10
1461216.943
20
5326458.376
30
7.341
0
VERTEX
70
32
8
15
10
1461215.982
20
5326459.944
30
7.341
0
VERTEX
70
32
8
15
10
1461216.078
20
5326459.962
30
7.341
0
VERTEX
70
32
8
15
10
1461216.087
20
5326459.963
30
7.341
0
VERTEX
70
32
8
15
10
1461215.267
20
5326460.984
30
7.341
0
VERTEX
70
32
8
15
10
1461218.019
20
5326460.261
30
7.341
0
VERTEX
70
32
8
15
10
1461240.265
20
5326448.237
30
7.341
0
VERTEX
70
32
8
15
10
1461408.055
20
5326358.917
30
7.341
0
VERTEX
70
32
8
15
10
1461427.961
20
5326354.242
30
7.341
0
VERTEX
70
32
8
15
10
1461458.705
20
5326347.774
30
7.341
0
VERTEX
70
32
8
15
10
1461415.061
20
5326373.094
30
7.341
0
VERTEX
70
32
8
15
10
1461332.575
20
5326459.509
30
7.341
0
VERTEX
70
32
8
15
10
1461259.074
20
5326532.222
30
7.341
0
VERTEX
70
32
8
15
10
1461247.45
20
5326560.718
30
7.341
0
VERTEX
70
32
8
15
10
1461249.22
20
5326561.373
30
7.341
0
VERTEX
70
32
8
15
10
1461249.395
20
5326561.437
30
7.341
0
VERTEX
70
32
8
15
10
1461248.33
20
5326564.579
30
7.341
0
VERTEX
70
32
8
15
10
1461248.169
20
5326565.052
30
7.341
0
VERTEX
70
32
8
15
10
1461278.158
20
5326565.673
30
7.341
0
VERTEX
70
32
8
15
10
1461436.686
20
5326465.277
30
7.341
0
VERTEX
70
32
8
15
10
1461455.064
20
5326454.035
30
7.341
0
VERTEX
70
32
8
15
10
1461460.023
20
5326453.02
30
7.341
0
VERTEX
70
32
8
15
10
1461466.81
20
5326451.818
30
7.341
0
VERTEX
70
32
8
15
10
1461456.958
20
5326457.867
30
7.341
0
VERTEX
70
32
8
15
10
1461349.066
20
5326562.199
30
7.341
0
VERTEX
70
32
8
15
10
1461301.205
20
5326606.068
30
7.341
0
VERTEX
70
32
8
15
10
1461274.066
20
5326647.849
30
7.341
0
VERTEX
70
32
8
15
10
1461233.584
20
5326706.491
30
7.341
0
VERTEX
70
32
8
15
10
1461338.298
20
5326671.084
30
7.341
0
VERTEX
70
32
8
15
10
1461432.972
20
5326601.017
30
7.341
0
VERTEX
70
32
8
15
10
1461355.798
20
5326669.4
30
7.341
0
VERTEX
70
32
8
15
10
1461343.336
20
5326679.915
30
7.341
0
VERTEX
70
32
8
15
10
1461301.22
20
5326739.925
30
7.341
0
VERTEX
70
32
8
15
10
1461273.343
20
5326776.971
30
7.341
0
VERTEX
70
32
8
15
10
1461211.363
20
5326857.167
30
7.341
0
VERTEX
70
32
8
15
10
1461203.342
20
5326867.694
30
7.341
0
VERTEX
70
32
8
15
10
1461202.339
20
5326871.017
30
7.341
0
VERTEX
70
32
8
15
10
1461201.525
20
5326872.25
30
7.341
0
VERTEX
70
32
8
15
10
1461201.411
20
5326872.423
30
7.341
0
VERTEX
70
32
8
15
10
1461201.3
20
5326873.42
30
7.341
0
VERTEX
70
32
8
15
10
1461201.289
20
5326873.515
30
7.341
0
VERTEX
70
32
8
15
10
1461193.114
20
5326883.489
30
7.341
0
VERTEX
70
32
8
15
10
1461240.267
20
5326896.31
30
7.341
0
VERTEX
70
32
8
15
10
1461246.585
20
5326897.623
30
7.341
0
VERTEX
70
32
8
15
10
1461248.276
20
5326897.792
30
7.341
0
VERTEX
70
32
8
15
10
1461248.218
20
5326899.698
30
7.341
0
VERTEX
70
32
8
15
10
1461247.767
20
5326903.963
30
7.341
0
VERTEX
70
32
8
15
10
1461248.724
20
5326956.121
30
7.341
0
VERTEX
70
32
8
15
10
1461246.643
20
5326967.09
30
7.341
0
VERTEX
70
32
8
15
10
1461256.878
20
5326958.512
30
7.341
0
VERTEX
70
32
8
15
10
1461262.202
20
5326958.061
30
7.341
0
VERTEX
70
32
8
15
10
1461262.766
20
5326958.013
30
7.341
0
VERTEX
70
32
8
15
10
1461275.198
20
5326947.782
30
7.341
0
VERTEX
70
32
8
15
10
1461286.701
20
5326939.125
30
7.341
0
VERTEX
70
32
8
15
10
1461351.097
20
5326891.938
30
7.341
0
VERTEX
70
32
8
15
10
1461388.044
20
5326864.607
30
7.341
0
VERTEX
70
32
8
15
10
1461425.093
20
5326837.643
30
7.341
0
VERTEX
70
32
8
15
10
1461563.49
20
5326737.009
30
7.341
0
VERTEX
70
32
8
15
10
1461586.174
20
5326719.323
30
7.341
0
VERTEX
70
32
8
15
10
1461598.538
20
5326717.149
30
7.341
0
VERTEX
70
32
8
15
10
1461619.281
20
5326713.184
30
7.341
0
VERTEX
70
32
8
15
10
1461592.914
20
5326732.96
30
7.341
0
VERTEX
70
32
8
15
10
1461507.309
20
5326818.73
30
7.341
0
VERTEX
70
32
8
15
10
1461449.004
20
5326889.615
30
7.341
0
VERTEX
70
32
8
15
10
1461441.623
20
5326902.065
30
7.341
0
VERTEX
70
32
8
15
10
1461429.25
20
5326923.798
30
7.341
0
VERTEX
70
32
8
15
10
1461454.199
20
5326907.135
30
7.341
0
VERTEX
70
32
8
15
10
1461456.79
20
5326905.897
30
7.341
0
VERTEX
70
32
8
15
10
1461457.417
20
5326905.597
30
7.341
0
VERTEX
70
32
8
15
10
1461492.564
20
5326880.924
30
7.341
0
VERTEX
70
32
8
15
10
1461624.116
20
5326796.094
30
7.341
0
VERTEX
70
32
8
15
10
1461665.754
20
5326787.971
30
7.341
0
VERTEX
70
32
8
15
10
1461743.615
20
5326771.616
30
7.341
0
VERTEX
70
32
8
15
10
1461646.139
20
5326840.655
30
7.341
0
VERTEX
70
32
8
15
10
1461612.18
20
5326878.521
30
7.341
0
VERTEX
70
32
8
15
10
1461604.954
20
5326885.276
30
7.341
0
VERTEX
70
32
8
15
10
1461603.22
20
5326886.896
30
7.341
0
VERTEX
70
32
8
15
10
1461605.146
20
5326889.363
30
7.341
0
VERTEX
70
32
8
15
10
1461605.497
20
5326889.814
30
7.341
0
VERTEX
70
32
8
15
10
1461609.774
20
5326889.949
30
7.341
0
VERTEX
70
32
8
15
10
1461610.38
20
5326889.968
30
7.341
0
VERTEX
70
32
8
15
10
1461608.877
20
5326895.165
30
7.341
0
VERTEX
70
32
8
15
10
1461608.282
20
5326897.221
30
7.341
0
VERTEX
70
32
8
15
10
1461634.46
20
5326891.429
30
7.341
0
VERTEX
70
32
8
15
10
1461644.673
20
5326889.17
30
7.341
0
VERTEX
70
32
8
15
10
1461683.154
20
5326875.024
30
7.341
0
VERTEX
70
32
8
15
10
1461695.185
20
5326870.602
30
7.341
0
VERTEX
70
32
8
15
10
1461747.95
20
5326861.332
30
7.341
0
VERTEX
70
32
8
15
10
1461778.644
20
5326859.955
30
7.341
0
SEQEND
8
15
0
POLYLINE
70
8
8
16
62
1
66
1
0
VERTEX
70
32
8
16
10
1461319.097
20
5326227.46
30
7.841
0
VERTEX
70
32
8
16
10
1461303.471
20
5326240.914
30
7.841
0
VERTEX
70
32
8
16
10
1461292.961
20
5326249.964
30
7.841
0
VERTEX
70
32
8
16
10
1461281.81
20
5326263.335
30
7.841
0
VERTEX
70
32
8
16
10
1461278.603
20
5326267.18
30
7.841
0
VERTEX
70
32
8
16
10
1461279.814
20
5326271.899
30
7.841
0
VERTEX
70
32
8
16
10
1461280.05
20
5326272.819
30
7.841
0
VERTEX
70
32
8
16
10
1461204.178
20
5326345.576
30
7.841
0
VERTEX
70
32
8
16
10
1461357.508
20
5326256.641
30
7.841
0
VERTEX
70
32
8
16
10
1461421.774
20
5326236.798
30
7.841
0
VERTEX
70
32
8
16
10
1461543.552
20
5326200.82
30
7.841
0
VERTEX
70
32
8
16
10
1461575.826
20
5326193.69
30
7.841
0
VERTEX
70
32
8
16
10
1461575.826
20
5326193.69
30
7.841
0
VERTEX
70
32
8
16
10
1461558.319
20
5326209.279
30
7.841
0
VERTEX
70
32
8
16
10
1461547.475
20
5326210.883
30
7.841
0
VERTEX
70
32
8
16
10
1461516.844
20
5326227.012
30
7.841
0
VERTEX
70
32
8
16
10
1461378.426
20
5326298.967
30
7.841
0
VERTEX
70
32
8
16
10
1461322.598
20
5326353.611
30
7.841
0
VERTEX
70
32
8
16
10
1461240.828
20
5326440.428
30
7.841
0
VERTEX
70
32
8
16
10
1461405.117
20
5326352.972
30
7.841
0
VERTEX
70
32
8
16
10
1461440.809
20
5326344.59
30
7.841
0
VERTEX
70
32
8
16
10
1461495.935
20
5326332.992
30
7.841
0
VERTEX
70
32
8
16
10
1461417.68
20
5326378.392
30
7.841
0
VERTEX
70
32
8
16
10
1461346.651
20
5326452.804
30
7.841
0
VERTEX
70
32
8
16
10
1461261.707
20
5326536.838
30
7.841
0
VERTEX
70
32
8
16
10
1461253.977
20
5326555.789
30
7.841
0
VERTEX
70
32
8
16
10
1461255.154
20
5326556.225
30
7.841
0
VERTEX
70
32
8
16
10
1461255.27
20
5326556.267
30
7.841
0
VERTEX
70
32
8
16
10
1461254.561
20
5326558.357
30
7.841
0
VERTEX
70
32
8
16
10
1461254.455
20
5326558.672
30
7.841
0
VERTEX
70
32
8
16
10
1461274.4
20
5326559.084
30
7.841
0
VERTEX
70
32
8
16
10
1461379.831
20
5326492.315
30
7.841
0
VERTEX
70
32
8
16
10
1461452.126
20
5326448.09
30
7.841
0
VERTEX
70
32
8
16
10
1461471.632
20
5326444.098
30
7.841
0
VERTEX
70
32
8
16
10
1461498.334
20
5326439.37
30
7.841
0
VERTEX
70
32
8
16
10
1461459.576
20
5326463.166
30
7.841
0
VERTEX
70
32
8
16
10
1461364.973
20
5326554.647
30
7.841
0
VERTEX
70
32
8
16
10
1461303.838
20
5326610.684
30
7.841
0
VERTEX
70
32
8
16
10
1461281.376
20
5326645.265
30
7.841
0
VERTEX
70
32
8
16
10
1461247.87
20
5326693.801
30
7.841
0
VERTEX
70
32
8
16
10
1461334.539
20
5326664.496
30
7.841
0
VERTEX
70
32
8
16
10
1461485.56
20
5326552.728
30
7.841
0
VERTEX
70
32
8
16
10
1461499.135
20
5326543.208
30
7.841
0
VERTEX
70
32
8
16
10
1461504.781
20
5326542.236
30
7.841
0
VERTEX
70
32
8
16
10
1461511.716
20
5326541.257
30
7.841
0
VERTEX
70
32
8
16
10
1461501.473
20
5326547.939
30
7.841
0
VERTEX
70
32
8
16
10
1461374.243
20
5326660.675
30
7.841
0
VERTEX
70
32
8
16
10
1461345.969
20
5326684.53
30
7.841
0
VERTEX
70
32
8
16
10
1461308.738
20
5326737.579
30
7.841
0
VERTEX
70
32
8
16
10
1461276.34
20
5326780.634
30
7.841
0
VERTEX
70
32
8
16
10
1461211.417
20
5326864.638
30
7.841
0
VERTEX
70
32
8
16
10
1461255.669
20
5326873.838
30
7.841
0
VERTEX
70
32
8
16
10
1461271.917
20
5326875.456
30
7.841
0
VERTEX
70
32
8
16
10
1461271.357
20
5326893.763
30
7.841
0
VERTEX
70
32
8
16
10
1461267.027
20
5326934.73
30
7.841
0
VERTEX
70
32
8
16
10
1461267.225
20
5326945.519
30
7.841
0
VERTEX
70
32
8
16
10
1461266.795
20
5326947.788
30
7.841
0
VERTEX
70
32
8
16
10
1461268.912
20
5326946.013
30
7.841
0
VERTEX
70
32
8
16
10
1461270.013
20
5326945.92
30
7.841
0
VERTEX
70
32
8
16
10
1461270.13
20
5326945.91
30
7.841
0
VERTEX
70
32
8
16
10
1461272.701
20
5326943.794
30
7.841
0
VERTEX
70
32
8
16
10
1461275.081
20
5326942.003
30
7.841
0
VERTEX
70
32
8
16
10
1461348.895
20
5326887.915
30
7.841
0
VERTEX
70
32
8
16
10
1461376.742
20
5326867.315
30
7.841
0
VERTEX
70
32
8
16
10
1461423.191
20
5326833.51
30
7.841
0
VERTEX
70
32
8
16
10
1461541.941
20
5326747.162
30
7.841
0
VERTEX
70
32
8
16
10
1461583.803
20
5326714.525
30
7.841
0
VERTEX
70
32
8
16
10
1461606.619
20
5326710.512
30
7.841
0
VERTEX
70
32
8
16
10
1461644.898
20
5326703.196
30
7.841
0
VERTEX
70
32
8
16
10
1461596.241
20
5326739.691
30
7.841
0
VERTEX
70
32
8
16
10
1461526.268
20
5326809.798
30
7.841
0
VERTEX
70
32
8
16
10
1461453.169
20
5326898.669
30
7.841
0
VERTEX
70
32
8
16
10
1461452.663
20
5326899.523
30
7.841
0
VERTEX
70
32
8
16
10
1461451.815
20
5326901.013
30
7.841
0
VERTEX
70
32
8
16
10
1461453.525
20
5326899.87
30
7.841
0
VERTEX
70
32
8
16
10
1461453.703
20
5326899.785
30
7.841
0
VERTEX
70
32
8
16
10
1461453.746
20
5326899.765
30
7.841
0
VERTEX
70
32
8
16
10
1461456.156
20
5326898.073
30
7.841
0
VERTEX
70
32
8
16
10
1461621.745
20
5326791.296
30
7.841
0
VERTEX
70
32
8
16
10
1461674.155
20
5326781.071
30
7.841
0
VERTEX
70
32
8
16
10
1461772.161
20
5326760.485
30
7.841
0
VERTEX
70
32
8
16
10
1461649.466
20
5326847.386
30
7.841
0
VERTEX
70
32
8
16
10
1461627.661
20
5326871.699
30
7.841
0
VERTEX
70
32
8
16
10
1461623.022
20
5326876.036
30
7.841
0
VERTEX
70
32
8
16
10
1461621.909
20
5326877.076
30
7.841
0
VERTEX
70
32
8
16
10
1461623.145
20
5326878.66
30
7.841
0
VERTEX
70
32
8
16
10
1461623.371
20
5326878.949
30
7.841
0
VERTEX
70
32
8
16
10
1461626.117
20
5326879.036
30
7.841
0
VERTEX
70
32
8
16
10
1461626.506
20
5326879.048
30
7.841
0
VERTEX
70
32
8
16
10
1461625.541
20
5326882.385
30
7.841
0
VERTEX
70
32
8
16
10
1461625.159
20
5326883.705
30
7.841
0
VERTEX
70
32
8
16
10
1461641.967
20
5326879.986
30
7.841
0
VERTEX
70
32
8
16
10
1461648.525
20
5326878.536
30
7.841
0
VERTEX
70
32
8
16
10
1461673.232
20
5326869.453
30
7.841
0
VERTEX
70
32
8
16
10
1461680.956
20
5326866.614
30
7.841
0
VERTEX
70
32
8
16
10
1461754.98
20
5326853.609
30
7.841
0
VERTEX
70
32
8
16
10
1461798.041
20
5326851.677
30
7.841
0
SEQEND
8
16
0
POLYLINE
70
8
8
16
62
1
66
1
0
VERTEX
70
32
8
16
10
1461386.637
20
5326174.831
30
7.841
0
VERTEX
70
32
8
16
10
1461386.368
20
5326175.4
30
7.841
0
VERTEX
70
32
8
16
10
1461385.112
20
5326176.045
30
7.841
0
VERTEX
70
32
8
16
10
1461372.583
20
5326185.598
30
7.841
0
SEQEND
8
16
0
POLYLINE
70
8
8
17
62
1
66
1
0
VERTEX
70
32
8
17
10
1461404.969
20
5326164.048
30
8.341
0
VERTEX
70
32
8
17
10
1461404.309
20
5326165.445
30
8.341
0
VERTEX
70
32
8
17
10
1461400.37
20
5326173.786
30
8.341
0
VERTEX
70
32
8
17
10
1461378.851
20
5326184.835
30
8.341
0
VERTEX
70
32
8
17
10
1461347.535
20
5326208.715
30
8.341
0
VERTEX
70
32
8
17
10
1461332.418
20
5326220.242
30
8.341
0
VERTEX
70
32
8
17
10
1461310.05
20
5326239.503
30
8.341
0
VERTEX
70
32
8
17
10
1461301.192
20
5326247.13
30
8.341
0
VERTEX
70
32
8
17
10
1461291.795
20
5326258.398
30
8.341
0
VERTEX
70
32
8
17
10
1461289.092
20
5326261.639
30
8.341
0
VERTEX
70
32
8
17
10
1461290.113
20
5326265.615
30
8.341
0
VERTEX
70
32
8
17
10
1461290.312
20
5326266.391
30
8.341
0
VERTEX
70
32
8
17
10
1461226.371
20
5326327.706
30
8.341
0
VERTEX
70
32
8
17
10
1461355.588
20
5326252.757
30
8.341
0
VERTEX
70
32
8
17
10
1461432.259
20
5326229.084
30
8.341
0
VERTEX
70
32
8
17
10
1461541.938
20
5326196.68
30
8.341
0
VERTEX
70
32
8
17
10
1461601.389
20
5326183.547
30
8.341
0
VERTEX
70
32
8
17
10
1461601.389
20
5326183.547
30
8.341
0
VERTEX
70
32
8
17
10
1461569.14
20
5326212.262
30
8.341
0
VERTEX
70
32
8
17
10
1461549.165
20
5326215.218
30
8.341
0
VERTEX
70
32
8
17
10
1461492.742
20
5326244.928
30
8.341
0
VERTEX
70
32
8
17
10
1461380.544
20
5326303.253
30
8.341
0
VERTEX
70
32
8
17
10
1461335.291
20
5326347.545
30
8.341
0
VERTEX
70
32
8
17
10
1461269.011
20
5326417.917
30
8.341
0
VERTEX
70
32
8
17
10
1461402.179
20
5326347.027
30
8.341
0
VERTEX
70
32
8
17
10
1461453.657
20
5326334.937
30
8.341
0
VERTEX
70
32
8
17
10
1461533.166
20
5326318.209
30
8.341
0
VERTEX
70
32
8
17
10
1461420.298
20
5326383.691
30
8.341
0
VERTEX
70
32
8
17
10
1461360.728
20
5326446.099
30
8.341
0
VERTEX
70
32
8
17
10
1461264.341
20
5326541.453
30
8.341
0
VERTEX
70
32
8
17
10
1461260.503
20
5326550.86
30
8.341
0
VERTEX
70
32
8
17
10
1461261.088
20
5326551.077
30
8.341
0
VERTEX
70
32
8
17
10
1461261.145
20
5326551.098
30
8.341
0
VERTEX
70
32
8
17
10
1461260.793
20
5326552.135
30
8.341
0
VERTEX
70
32
8
17
10
1461260.74
20
5326552.291
30
8.341
0
VERTEX
70
32
8
17
10
1461270.641
20
5326552.496
30
8.341
0
VERTEX
70
32
8
17
10
1461322.976
20
5326519.352
30
8.341
0
VERTEX
70
32
8
17
10
1461449.188
20
5326442.145
30
8.341
0
VERTEX
70
32
8
17
10
1461483.242
20
5326435.177
30
8.341
0
VERTEX
70
32
8
17
10
1461529.857
20
5326426.922
30
8.341
0
VERTEX
70
32
8
17
10
1461462.195
20
5326468.464
30
8.341
0
VERTEX
70
32
8
17
10
1461380.88
20
5326547.095
30
8.341
0
VERTEX
70
32
8
17
10
1461306.471
20
5326615.299
30
8.341
0
VERTEX
70
32
8
17
10
1461288.686
20
5326642.68
30
8.341
0
VERTEX
70
32
8
17
10
1461262.156
20
5326681.112
30
8.341
0
VERTEX
70
32
8
17
10
1461330.78
20
5326657.908
30
8.341
0
VERTEX
70
32
8
17
10
1461450.359
20
5326569.41
30
8.341
0
VERTEX
70
32
8
17
10
1461496.197
20
5326537.263
30
8.341
0
VERTEX
70
32
8
17
10
1461515.262
20
5326533.98
30
8.341
0
VERTEX
70
32
8
17
10
1461538.678
20
5326530.674
30
8.341
0
VERTEX
70
32
8
17
10
1461504.092
20
5326553.237
30
8.341
0
VERTEX
70
32
8
17
10
1461392.687
20
5326651.95
30
8.341
0
VERTEX
70
32
8
17
10
1461348.602
20
5326689.145
30
8.341
0
VERTEX
70
32
8
17
10
1461316.257
20
5326735.233
30
8.341
0
VERTEX
70
32
8
17
10
1461279.337
20
5326784.297
30
8.341
0
VERTEX
70
32
8
17
10
1461233.533
20
5326843.563
30
8.341
0
VERTEX
70
32
8
17
10
1461264.754
20
5326850.053
30
8.341
0
VERTEX
70
32
8
17
10
1461295.557
20
5326853.121
30
8.341
0
VERTEX
70
32
8
17
10
1461294.496
20
5326887.828
30
8.341
0
VERTEX
70
32
8
17
10
1461290.565
20
5326925.02
30
8.341
0
VERTEX
70
32
8
17
10
1461346.694
20
5326883.891
30
8.341
0
VERTEX
70
32
8
17
10
1461365.44
20
5326870.023
30
8.341
0
VERTEX
70
32
8
17
10
1461421.29
20
5326829.377
30
8.341
0
VERTEX
70
32
8
17
10
1461520.392
20
5326757.315
30
8.341
0
VERTEX
70
32
8
17
10
1461581.432
20
5326709.726
30
8.341
0
VERTEX
70
32
8
17
10
1461614.7
20
5326703.876
30
8.341
0
VERTEX
70
32
8
17
10
1461670.515
20
5326693.207
30
8.341
0
VERTEX
70
32
8
17
10
1461599.567
20
5326746.422
30
8.341
0
VERTEX
70
32
8
17
10
1461545.228
20
5326800.867
30
8.341
0
VERTEX
70
32
8
17
10
1461486.651
20
5326872.082
30
8.341
0
VERTEX
70
32
8
17
10
1461619.374
20
5326786.498
30
8.341
0
VERTEX
70
32
8
17
10
1461682.557
20
5326774.171
30
8.341
0
VERTEX
70
32
8
17
10
1461777.643
20
5326754.199
30
8.341
0
VERTEX
70
32
8
17
10
1461786.249
20
5326752.75
30
8.341
0
VERTEX
70
32
8
17
10
1461796.256
20
5326751.091
30
8.341
0
VERTEX
70
32
8
17
10
1461781.964
20
5326762.941
30
8.341
0
VERTEX
70
32
8
17
10
1461719.25
20
5326807.047
30
8.341
0
VERTEX
70
32
8
17
10
1461652.792
20
5326854.117
30
8.341
0
VERTEX
70
32
8
17
10
1461643.143
20
5326864.876
30
8.341
0
VERTEX
70
32
8
17
10
1461641.09
20
5326866.795
30
8.341
0
VERTEX
70
32
8
17
10
1461640.597
20
5326867.256
30
8.341
0
VERTEX
70
32
8
17
10
1461641.144
20
5326867.957
30
8.341
0
VERTEX
70
32
8
17
10
1461641.244
20
5326868.085
30
8.341
0
VERTEX
70
32
8
17
10
1461642.459
20
5326868.123
30
8.341
0
VERTEX
70
32
8
17
10
1461642.632
20
5326868.128
30
8.341
0
VERTEX
70
32
8
17
10
1461642.205
20
5326869.605
30
8.341
0
VERTEX
70
32
8
17
10
1461642.036
20
5326870.189
30
8.341
0
VERTEX
70
32
8
17
10
1461649.474
20
5326868.544
30
8.341
0
VERTEX
70
32
8
17
10
1461652.376
20
5326867.902
30
8.341
0
VERTEX
70
32
8
17
10
1461663.31
20
5326863.882
30
8.341
0
VERTEX
70
32
8
17
10
1461666.728
20
5326862.626
30
8.341
0
VERTEX
70
32
8
17
10
1461762.011
20
5326845.887
30
8.341
0
VERTEX
70
32
8
17
10
1461817.438
20
5326843.399
30
8.341
0
SEQEND
8
17
0
POLYLINE
70
8
8
18
62
1
66
1
0
VERTEX
70
32
8
18
10
1461423.301
20
5326153.264
30
8.841
0
VERTEX
70
32
8
18
10
1461417.876
20
5326164.751
30
8.841
0
VERTEX
70
32
8
18
10
1461414.372
20
5326172.172
30
8.841
0
VERTEX
70
32
8
18
10
1461372.59
20
5326193.625
30
8.841
0
VERTEX
70
32
8
18
10
1461347.118
20
5326213.049
30
8.841
0
VERTEX
70
32
8
18
10
1461334.822
20
5326222.425
30
8.841
0
VERTEX
70
32
8
18
10
1461316.628
20
5326238.092
30
8.841
0
VERTEX
70
32
8
18
10
1461309.423
20
5326244.295
30
8.841
0
VERTEX
70
32
8
18
10
1461301.779
20
5326253.461
30
8.841
0
VERTEX
70
32
8
18
10
1461299.581
20
5326256.097
30
8.841
0
VERTEX
70
32
8
18
10
1461300.411
20
5326259.332
30
8.841
0
VERTEX
70
32
8
18
10
1461300.573
20
5326259.962
30
8.841
0
VERTEX
70
32
8
18
10
1461248.564
20
5326309.836
30
8.841
0
VERTEX
70
32
8
18
10
1461353.668
20
5326248.872
30
8.841
0
VERTEX
70
32
8
18
10
1461442.743
20
5326221.37
30
8.841
0
VERTEX
70
32
8
18
10
1461540.324
20
5326192.54
30
8.841
0
VERTEX
70
32
8
18
10
1461614.487
20
5326176.157
30
8.841
0
VERTEX
70
32
8
18
10
1461617.084
20
5326171.912
30
8.841
0
SEQEND
8
18
0
POLYLINE
70
8
8
18
62
1
66
1
0
VERTEX
70
32
8
18
10
1461618.996
20
5326180.488
30
8.841
0
VERTEX
70
32
8
18
10
1461579.961
20
5326215.246
30
8.841
0
VERTEX
70
32
8
18
10
1461550.855
20
5326219.553
30
8.841
0
VERTEX
70
32
8
18
10
1461468.639
20
5326262.844
30
8.841
0
VERTEX
70
32
8
18
10
1461382.662
20
5326307.538
30
8.841
0
VERTEX
70
32
8
18
10
1461347.985
20
5326341.479
30
8.841
0
VERTEX
70
32
8
18
10
1461297.194
20
5326395.405
30
8.841
0
VERTEX
70
32
8
18
10
1461399.241
20
5326341.083
30
8.841
0
VERTEX
70
32
8
18
10
1461466.506
20
5326325.285
30
8.841
0
VERTEX
70
32
8
18
10
1461570.396
20
5326303.427
30
8.841
0
VERTEX
70
32
8
18
10
1461422.917
20
5326388.989
30
8.841
0
VERTEX
70
32
8
18
10
1461374.804
20
5326439.393
30
8.841
0
VERTEX
70
32
8
18
10
1461267.504
20
5326545.544
30
8.841
0
VERTEX
70
32
8
18
10
1461446.25
20
5326436.2
30
8.841
0
VERTEX
70
32
8
18
10
1461494.852
20
5326426.255
30
8.841
0
VERTEX
70
32
8
18
10
1461561.38
20
5326414.473
30
8.841
0
VERTEX
70
32
8
18
10
1461464.814
20
5326473.762
30
8.841
0
VERTEX
70
32
8
18
10
1461396.787
20
5326539.544
30
8.841
0
VERTEX
70
32
8
18
10
1461309.105
20
5326619.915
30
8.841
0
VERTEX
70
32
8
18
10
1461295.995
20
5326640.096
30
8.841
0
VERTEX
70
32
8
18
10
1461276.441
20
5326668.422
30
8.841
0
VERTEX
70
32
8
18
10
1461327.022
20
5326651.319
30
8.841
0
VERTEX
70
32
8
18
10
1461415.158
20
5326586.092
30
8.841
0
VERTEX
70
32
8
18
10
1461493.259
20
5326531.318
30
8.841
0
VERTEX
70
32
8
18
10
1461525.742
20
5326525.724
30
8.841
0
VERTEX
70
32
8
18
10
1461565.64
20
5326520.091
30
8.841
0
VERTEX
70
32
8
18
10
1461506.71
20
5326558.535
30
8.841
0
VERTEX
70
32
8
18
10
1461411.132
20
5326643.225
30
8.841
0
VERTEX
70
32
8
18
10
1461351.235
20
5326693.761
30
8.841
0
VERTEX
70
32
8
18
10
1461323.776
20
5326732.887
30
8.841
0
VERTEX
70
32
8
18
10
1461282.334
20
5326787.96
30
8.841
0
VERTEX
70
32
8
18
10
1461255.65
20
5326822.487
30
8.841
0
VERTEX
70
32
8
18
10
1461273.838
20
5326826.269
30
8.841
0
VERTEX
70
32
8
18
10
1461317.213
20
5326830.588
30
8.841
0
VERTEX
70
32
8
18
10
1461319.197
20
5326830.786
30
8.841
0
VERTEX
70
32
8
18
10
1461319.164
20
5326831.51
30
8.841
0
VERTEX
70
32
8
18
10
1461319.115
20
5326833.485
30
8.841
0
VERTEX
70
32
8
18
10
1461317.635
20
5326881.893
30
8.841
0
VERTEX
70
32
8
18
10
1461315.612
20
5326901.029
30
8.841
0
VERTEX
70
32
8
18
10
1461344.492
20
5326879.867
30
8.841
0
VERTEX
70
32
8
18
10
1461354.137
20
5326872.732
30
8.841
0
VERTEX
70
32
8
18
10
1461419.388
20
5326825.244
30
8.841
0
VERTEX
70
32
8
18
10
1461498.843
20
5326767.469
30
8.841
0
VERTEX
70
32
8
18
10
1461579.06
20
5326704.928
30
8.841
0
VERTEX
70
32
8
18
10
1461622.781
20
5326697.239
30
8.841
0
VERTEX
70
32
8
18
10
1461696.132
20
5326683.219
30
8.841
0
VERTEX
70
32
8
18
10
1461602.894
20
5326753.153
30
8.841
0
VERTEX
70
32
8
18
10
1461564.187
20
5326791.935
30
8.841
0
VERTEX
70
32
8
18
10
1461522.462
20
5326842.662
30
8.841
0
VERTEX
70
32
8
18
10
1461617.002
20
5326781.699
30
8.841
0
VERTEX
70
32
8
18
10
1461690.958
20
5326767.271
30
8.841
0
VERTEX
70
32
8
18
10
1461775.344
20
5326749.546
30
8.841
0
VERTEX
70
32
8
18
10
1461795.459
20
5326746.16
30
8.841
0
VERTEX
70
32
8
18
10
1461818.848
20
5326742.283
30
8.841
0
VERTEX
70
32
8
18
10
1461785.443
20
5326769.981
30
8.841
0
VERTEX
70
32
8
18
10
1461661.675
20
5326857.026
30
8.841
0
VERTEX
70
32
8
18
10
1461769.042
20
5326838.164
30
8.841
0
VERTEX
70
32
8
18
10
1461830.941
20
5326835.386
30
8.841
0
VERTEX
70
32
8
18
10
1461836.835
20
5326835.121
30
8.841
0
SEQEND
8
18
0
POLYLINE
70
8
8
19
62
1
66
1
0
VERTEX
70
32
8
19
10
1461459.341
20
5326143.568
30
9.341
0
VERTEX
70
32
8
19
10
1461439.961
20
5326146.02
30
9.341
0
VERTEX
70
32
8
19
10
1461431.444
20
5326164.057
30
9.341
0
VERTEX
70
32
8
19
10
1461428.374
20
5326170.557
30
9.341
0
VERTEX
70
32
8
19
10
1461366.33
20
5326202.416
30
9.341
0
VERTEX
70
32
8
19
10
1461346.701
20
5326217.383
30
9.341
0
VERTEX
70
32
8
19
10
1461337.226
20
5326224.608
30
9.341
0
VERTEX
70
32
8
19
10
1461323.206
20
5326236.681
30
9.341
0
VERTEX
70
32
8
19
10
1461317.654
20
5326241.461
30
9.341
0
VERTEX
70
32
8
19
10
1461311.764
20
5326248.524
30
9.341
0
VERTEX
70
32
8
19
10
1461310.07
20
5326250.555
30
9.341
0
VERTEX
70
32
8
19
10
1461310.709
20
5326253.048
30
9.341
0
VERTEX
70
32
8
19
10
1461310.834
20
5326253.534
30
9.341
0
VERTEX
70
32
8
19
10
1461270.757
20
5326291.966
30
9.341
0
VERTEX
70
32
8
19
10
1461351.749
20
5326244.988
30
9.341
0
VERTEX
70
32
8
19
10
1461453.228
20
5326213.656
30
9.341
0
VERTEX
70
32
8
19
10
1461538.71
20
5326188.401
30
9.341
0
VERTEX
70
32
8
19
10
1461603.678
20
5326174.049
30
9.341
0
VERTEX
70
32
8
19
10
1461608.606
20
5326165.994
30
9.341
0
VERTEX
70
32
8
19
10
1461613.854
20
5326157.414
30
9.341
0
SEQEND
8
19
0
POLYLINE
70
8
8
19
62
1
66
1
0
VERTEX
70
32
8
19
10
1461621.342
20
5326191.018
30
9.341
0
VERTEX
70
32
8
19
10
1461590.782
20
5326218.229
30
9.341
0
VERTEX
70
32
8
19
10
1461552.545
20
5326223.887
30
9.341
0
VERTEX
70
32
8
19
10
1461444.537
20
5326280.759
30
9.341
0
VERTEX
70
32
8
19
10
1461384.78
20
5326311.823
30
9.341
0
VERTEX
70
32
8
19
10
1461360.678
20
5326335.413
30
9.341
0
VERTEX
70
32
8
19
10
1461325.377
20
5326372.893
30
9.341
0
VERTEX
70
32
8
19
10
1461396.302
20
5326335.138
30
9.341
0
VERTEX
70
32
8
19
10
1461479.354
20
5326315.632
30
9.341
0
VERTEX
70
32
8
19
10
1461580.054
20
5326294.446
30
9.341
0
VERTEX
70
32
8
19
10
1461589.54
20
5326287.62
30
9.341
0
VERTEX
70
32
8
19
10
1461684.364
20
5326259.53
30
9.341
0
VERTEX
70
32
8
19
10
1461595.648
20
5326296.869
30
9.341
0
VERTEX
70
32
8
19
10
1461583.232
20
5326302.598
30
9.341
0
VERTEX
70
32
8
19
10
1461555.433
20
5326318.926
30
9.341
0
VERTEX
70
32
8
19
10
1461425.535
20
5326394.287
30
9.341
0
VERTEX
70
32
8
19
10
1461388.881
20
5326432.688
30
9.341
0
VERTEX
70
32
8
19
10
1461307.134
20
5326513.559
30
9.341
0
VERTEX
70
32
8
19
10
1461443.312
20
5326430.256
30
9.341
0
VERTEX
70
32
8
19
10
1461506.461
20
5326417.333
30
9.341
0
VERTEX
70
32
8
19
10
1461592.904
20
5326402.025
30
9.341
0
VERTEX
70
32
8
19
10
1461467.432
20
5326479.061
30
9.341
0
VERTEX
70
32
8
19
10
1461412.694
20
5326531.992
30
9.341
0
VERTEX
70
32
8
19
10
1461311.738
20
5326624.53
30
9.341
0
VERTEX
70
32
8
19
10
1461303.305
20
5326637.512
30
9.341
0
VERTEX
70
32
8
19
10
1461290.727
20
5326655.732
30
9.341
0
VERTEX
70
32
8
19
10
1461323.263
20
5326644.731
30
9.341
0
VERTEX
70
32
8
19
10
1461379.957
20
5326602.773
30
9.341
0
VERTEX
70
32
8
19
10
1461490.321
20
5326525.373
30
9.341
0
VERTEX
70
32
8
19
10
1461536.223
20
5326517.468
30
9.341
0
VERTEX
70
32
8
19
10
1461592.602
20
5326509.508
30
9.341
0
VERTEX
70
32
8
19
10
1461509.329
20
5326563.834
30
9.341
0
VERTEX
70
32
8
19
10
1461429.577
20
5326634.5
30
9.341
0
VERTEX
70
32
8
19
10
1461353.869
20
5326698.376
30
9.341
0
VERTEX
70
32
8
19
10
1461331.295
20
5326730.541
30
9.341
0
VERTEX
70
32
8
19
10
1461285.331
20
5326791.623
30
9.341
0
VERTEX
70
32
8
19
10
1461277.766
20
5326801.412
30
9.341
0
VERTEX
70
32
8
19
10
1461282.923
20
5326802.484
30
9.341
0
VERTEX
70
32
8
19
10
1461295.22
20
5326803.708
30
9.341
0
VERTEX
70
32
8
19
10
1461342.838
20
5326808.45
30
9.341
0
VERTEX
70
32
8
19
10
1461342.046
20
5326825.827
30
9.341
0
VERTEX
70
32
8
19
10
1461340.857
20
5326873.223
30
9.341
0
VERTEX
70
32
8
19
10
1461340.773
20
5326875.958
30
9.341
0
VERTEX
70
32
8
19
10
1461340.659
20
5326877.039
30
9.341
0
VERTEX
70
32
8
19
10
1461342.291
20
5326875.843
30
9.341
0
VERTEX
70
32
8
19
10
1461342.835
20
5326875.44
30
9.341
0
VERTEX
70
32
8
19
10
1461417.487
20
5326821.111
30
9.341
0
VERTEX
70
32
8
19
10
1461477.294
20
5326777.622
30
9.341
0
VERTEX
70
32
8
19
10
1461576.689
20
5326700.13
30
9.341
0
VERTEX
70
32
8
19
10
1461630.862
20
5326690.603
30
9.341
0
VERTEX
70
32
8
19
10
1461721.749
20
5326673.231
30
9.341
0
VERTEX
70
32
8
19
10
1461606.221
20
5326759.884
30
9.341
0
VERTEX
70
32
8
19
10
1461583.146
20
5326783.003
30
9.341
0
VERTEX
70
32
8
19
10
1461558.273
20
5326813.243
30
9.341
0
VERTEX
70
32
8
19
10
1461614.631
20
5326776.901
30
9.341
0
VERTEX
70
32
8
19
10
1461699.36
20
5326760.371
30
9.341
0
VERTEX
70
32
8
19
10
1461773.045
20
5326744.894
30
9.341
0
VERTEX
70
32
8
19
10
1461804.669
20
5326739.57
30
9.341
0
VERTEX
70
32
8
19
10
1461841.441
20
5326733.475
30
9.341
0
VERTEX
70
32
8
19
10
1461788.923
20
5326777.021
30
9.341
0
VERTEX
70
32
8
19
10
1461691.953
20
5326845.219
30
9.341
0
VERTEX
70
32
8
19
10
1461776.072
20
5326830.441
30
9.341
0
VERTEX
70
32
8
19
10
1461824.569
20
5326828.265
30
9.341
0
VERTEX
70
32
8
19
10
1461856.232
20
5326826.844
30
9.341
0
SEQEND
8
19
0
POLYLINE
70
8
8
20
62
1
66
1
0
VERTEX
70
32
8
20
10
1461540.914
20
5326136.67
30
9.841
0
VERTEX
70
32
8
20
10
1461504.731
20
5326141.248
30
9.841
0
VERTEX
70
32
8
20
10
1461452.323
20
5326147.879
30
9.841
0
VERTEX
70
32
8
20
10
1461445.012
20
5326163.363
30
9.841
0
VERTEX
70
32
8
20
10
1461442.376
20
5326168.943
30
9.841
0
VERTEX
70
32
8
20
10
1461360.069
20
5326211.206
30
9.841
0
VERTEX
70
32
8
20
10
1461346.284
20
5326221.717
30
9.841
0
VERTEX
70
32
8
20
10
1461339.63
20
5326226.791
30
9.841
0
VERTEX
70
32
8
20
10
1461329.784
20
5326235.27
30
9.841
0
VERTEX
70
32
8
20
10
1461325.885
20
5326238.627
30
9.841
0
VERTEX
70
32
8
20
10
1461321.748
20
5326243.587
30
9.841
0
VERTEX
70
32
8
20
10
1461320.558
20
5326245.014
30
9.841
0
VERTEX
70
32
8
20
10
1461321.008
20
5326246.764
30
9.841
0
VERTEX
70
32
8
20
10
1461321.095
20
5326247.105
30
9.841
0
VERTEX
70
32
8
20
10
1461292.949
20
5326274.096
30
9.841
0
VERTEX
70
32
8
20
10
1461349.829
20
5326241.104
30
9.841
0
VERTEX
70
32
8
20
10
1461463.712
20
5326205.942
30
9.841
0
VERTEX
70
32
8
20
10
1461537.096
20
5326184.261
30
9.841
0
VERTEX
70
32
8
20
10
1461592.869
20
5326171.941
30
9.841
0
VERTEX
70
32
8
20
10
1461597.099
20
5326165.026
30
9.841
0
VERTEX
70
32
8
20
10
1461610.623
20
5326142.917
30
9.841
0
SEQEND
8
20
0
POLYLINE
70
8
8
20
62
1
66
1
0
VERTEX
70
32
8
20
10
1461623.688
20
5326201.548
30
9.841
0
VERTEX
70
32
8
20
10
1461601.603
20
5326221.213
30
9.841
0
VERTEX
70
32
8
20
10
1461554.235
20
5326228.222
30
9.841
0
VERTEX
70
32
8
20
10
1461420.434
20
5326298.675
30
9.841
0
VERTEX
70
32
8
20
10
1461386.898
20
5326316.108
30
9.841
0
VERTEX
70
32
8
20
10
1461373.372
20
5326329.348
30
9.841
0
VERTEX
70
32
8
20
10
1461353.56
20
5326350.382
30
9.841
0
VERTEX
70
32
8
20
10
1461393.364
20
5326329.193
30
9.841
0
VERTEX
70
32
8
20
10
1461492.203
20
5326305.98
30
9.841
0
VERTEX
70
32
8
20
10
1461577.55
20
5326288.023
30
9.841
0
VERTEX
70
32
8
20
10
1461600.705
20
5326271.36
30
9.841
0
VERTEX
70
32
8
20
10
1461777.782
20
5326218.905
30
9.841
0
VERTEX
70
32
8
20
10
1461786.602
20
5326217.45
30
9.841
0
VERTEX
70
32
8
20
10
1461795.347
20
5326216.008
30
9.841
0
VERTEX
70
32
8
20
10
1461799.464
20
5326215.335
30
9.841
0
VERTEX
70
32
8
20
10
1461795.978
20
5326217.481
30
9.841
0
VERTEX
70
32
8
20
10
1461793.259
20
5326219.172
30
9.841
0
VERTEX
70
32
8
20
10
1461615.618
20
5326293.937
30
9.841
0
VERTEX
70
32
8
20
10
1461585.309
20
5326307.924
30
9.841
0
VERTEX
70
32
8
20
10
1461517.447
20
5326347.781
30
9.841
0
VERTEX
70
32
8
20
10
1461428.154
20
5326399.586
30
9.841
0
VERTEX
70
32
8
20
10
1461402.957
20
5326425.983
30
9.841
0
VERTEX
70
32
8
20
10
1461346.763
20
5326481.575
30
9.841
0
VERTEX
70
32
8
20
10
1461440.374
20
5326424.311
30
9.841
0
VERTEX
70
32
8
20
10
1461518.071
20
5326408.411
30
9.841
0
VERTEX
70
32
8
20
10
1461617.614
20
5326390.783
30
9.841
0
VERTEX
70
32
8
20
10
1461629.318
20
5326387.748
30
9.841
0
VERTEX
70
32
8
20
10
1461621.338
20
5326391.62
30
9.841
0
VERTEX
70
32
8
20
10
1461618.531
20
5326393.136
30
9.841
0
VERTEX
70
32
8
20
10
1461609.676
20
5326398.633
30
9.841
0
VERTEX
70
32
8
20
10
1461470.051
20
5326484.359
30
9.841
0
VERTEX
70
32
8
20
10
1461428.601
20
5326524.44
30
9.841
0
VERTEX
70
32
8
20
10
1461314.371
20
5326629.145
30
9.841
0
VERTEX
70
32
8
20
10
1461310.615
20
5326634.927
30
9.841
0
VERTEX
70
32
8
20
10
1461305.013
20
5326643.043
30
9.841
0
VERTEX
70
32
8
20
10
1461319.504
20
5326638.143
30
9.841
0
VERTEX
70
32
8
20
10
1461344.755
20
5326619.455
30
9.841
0
VERTEX
70
32
8
20
10
1461487.383
20
5326519.429
30
9.841
0
VERTEX
70
32
8
20
10
1461546.703
20
5326509.212
30
9.841
0
VERTEX
70
32
8
20
10
1461619.564
20
5326498.925
30
9.841
0
VERTEX
70
32
8
20
10
1461511.947
20
5326569.132
30
9.841
0
VERTEX
70
32
8
20
10
1461448.021
20
5326625.776
30
9.841
0
VERTEX
70
32
8
20
10
1461356.502
20
5326702.991
30
9.841
0
VERTEX
70
32
8
20
10
1461338.813
20
5326728.195
30
9.841
0
VERTEX
70
32
8
20
10
1461297.891
20
5326782.577
30
9.841
0
VERTEX
70
32
8
20
10
1461325.099
20
5326781.994
30
9.841
0
VERTEX
70
32
8
20
10
1461366.478
20
5326786.115
30
9.841
0
VERTEX
70
32
8
20
10
1461364.928
20
5326820.145
30
9.841
0
VERTEX
70
32
8
20
10
1461364.067
20
5326854.472
30
9.841
0
VERTEX
70
32
8
20
10
1461415.585
20
5326816.978
30
9.841
0
VERTEX
70
32
8
20
10
1461455.745
20
5326787.776
30
9.841
0
VERTEX
70
32
8
20
10
1461574.318
20
5326695.332
30
9.841
0
VERTEX
70
32
8
20
10
1461638.943
20
5326683.967
30
9.841
0
VERTEX
70
32
8
20
10
1461733.958
20
5326665.806
30
9.841
0
VERTEX
70
32
8
20
10
1461739.514
20
5326664.855
30
9.841
0
VERTEX
70
32
8
20
10
1461746.065
20
5326663.75
30
9.841
0
VERTEX
70
32
8
20
10
1461736.733
20
5326671.421
30
9.841
0
VERTEX
70
32
8
20
10
1461672.819
20
5326719.157
30
9.841
0
VERTEX
70
32
8
20
10
1461609.547
20
5326766.615
30
9.841
0
VERTEX
70
32
8
20
10
1461602.105
20
5326774.071
30
9.841
0
VERTEX
70
32
8
20
10
1461594.084
20
5326783.823
30
9.841
0
VERTEX
70
32
8
20
10
1461612.259
20
5326772.103
30
9.841
0
VERTEX
70
32
8
20
10
1461707.761
20
5326753.471
30
9.841
0
VERTEX
70
32
8
20
10
1461770.745
20
5326740.242
30
9.841
0
VERTEX
70
32
8
20
10
1461813.879
20
5326732.98
30
9.841
0
VERTEX
70
32
8
20
10
1461864.033
20
5326724.667
30
9.841
0
VERTEX
70
32
8
20
10
1461792.402
20
5326784.061
30
9.841
0
VERTEX
70
32
8
20
10
1461722.23
20
5326833.412
30
9.841
0
VERTEX
70
32
8
20
10
1461783.103
20
5326822.718
30
9.841
0
VERTEX
70
32
8
20
10
1461818.197
20
5326821.143
30
9.841
0
VERTEX
70
32
8
20
10
1461875.629
20
5326818.566
30
9.841
0
SEQEND
8
20
0
POLYLINE
70
8
8
21
62
1
66
1
0
VERTEX
70
32
8
21
10
1461331.357
20
5326240.677
30
10.341
0
VERTEX
70
32
8
21
10
1461315.142
20
5326256.225
30
10.341
0
VERTEX
70
32
8
21
10
1461347.909
20
5326237.22
30
10.341
0
VERTEX
70
32
8
21
10
1461474.197
20
5326198.228
30
10.341
0
VERTEX
70
32
8
21
10
1461535.482
20
5326180.122
30
10.341
0
VERTEX
70
32
8
21
10
1461582.06
20
5326169.832
30
10.341
0
VERTEX
70
32
8
21
10
1461585.593
20
5326164.057
30
10.341
0
VERTEX
70
32
8
21
10
1461605.23
20
5326131.955
30
10.341
0
VERTEX
70
32
8
21
10
1461508.453
20
5326144.2
30
10.341
0
VERTEX
70
32
8
21
10
1461464.686
20
5326149.738
30
10.341
0
VERTEX
70
32
8
21
10
1461458.579
20
5326162.669
30
10.341
0
VERTEX
70
32
8
21
10
1461456.378
20
5326167.329
30
10.341
0
VERTEX
70
32
8
21
10
1461353.808
20
5326219.996
30
10.341
0
VERTEX
70
32
8
21
10
1461345.867
20
5326226.051
30
10.341
0
VERTEX
70
32
8
21
10
1461342.034
20
5326228.974
30
10.341
0
VERTEX
70
32
8
21
10
1461336.362
20
5326233.859
30
10.341
0
VERTEX
70
32
8
21
10
1461334.116
20
5326235.793
30
10.341
0
VERTEX
70
32
8
21
10
1461331.733
20
5326238.65
30
10.341
0
VERTEX
70
32
8
21
10
1461331.047
20
5326239.472
30
10.341
0
VERTEX
70
32
8
21
10
1461331.306
20
5326240.48
30
10.341
0
VERTEX
70
32
8
21
10
1461331.357
20
5326240.677
30
10.341
0
SEQEND
8
21
0
POLYLINE
70
8
8
21
62
1
66
1
0
VERTEX
70
32
8
21
10
1461626.035
20
5326212.077
30
10.341
0
VERTEX
70
32
8
21
10
1461612.424
20
5326224.196
30
10.341
0
VERTEX
70
32
8
21
10
1461555.925
20
5326232.557
30
10.341
0
VERTEX
70
32
8
21
10
1461396.331
20
5326316.591
30
10.341
0
VERTEX
70
32
8
21
10
1461389.016
20
5326320.394
30
10.341
0
VERTEX
70
32
8
21
10
1461386.065
20
5326323.282
30
10.341
0
VERTEX
70
32
8
21
10
1461381.743
20
5326327.87
30
10.341
0
VERTEX
70
32
8
21
10
1461390.426
20
5326323.248
30
10.341
0
VERTEX
70
32
8
21
10
1461505.051
20
5326296.327
30
10.341
0
VERTEX
70
32
8
21
10
1461575.046
20
5326281.601
30
10.341
0
VERTEX
70
32
8
21
10
1461611.871
20
5326255.101
30
10.341
0
VERTEX
70
32
8
21
10
1461720.998
20
5326222.774
30
10.341
0
VERTEX
70
32
8
21
10
1461762.99
20
5326215.849
30
10.341
0
VERTEX
70
32
8
21
10
1461804.625
20
5326208.983
30
10.341
0
VERTEX
70
32
8
21
10
1461824.228
20
5326205.778
30
10.341
0
VERTEX
70
32
8
21
10
1461807.633
20
5326215.996
30
10.341
0
VERTEX
70
32
8
21
10
1461794.684
20
5326224.045
30
10.341
0
VERTEX
70
32
8
21
10
1461635.587
20
5326291.006
30
10.341
0
VERTEX
70
32
8
21
10
1461587.385
20
5326313.25
30
10.341
0
VERTEX
70
32
8
21
10
1461479.461
20
5326376.637
30
10.341
0
VERTEX
70
32
8
21
10
1461430.773
20
5326404.884
30
10.341
0
VERTEX
70
32
8
21
10
1461417.033
20
5326419.278
30
10.341
0
VERTEX
70
32
8
21
10
1461386.393
20
5326449.59
30
10.341
0
VERTEX
70
32
8
21
10
1461437.435
20
5326418.366
30
10.341
0
VERTEX
70
32
8
21
10
1461529.681
20
5326399.489
30
10.341
0
VERTEX
70
32
8
21
10
1461615.11
20
5326384.361
30
10.341
0
VERTEX
70
32
8
21
10
1461685.271
20
5326366.168
30
10.341
0
VERTEX
70
32
8
21
10
1461637.437
20
5326389.374
30
10.341
0
VERTEX
70
32
8
21
10
1461620.607
20
5326398.462
30
10.341
0
VERTEX
70
32
8
21
10
1461567.531
20
5326431.415
30
10.341
0
VERTEX
70
32
8
21
10
1461472.669
20
5326489.657
30
10.341
0
VERTEX
70
32
8
21
10
1461444.508
20
5326516.889
30
10.341
0
VERTEX
70
32
8
21
10
1461330.235
20
5326621.633
30
10.341
0
VERTEX
70
32
8
21
10
1461484.445
20
5326513.484
30
10.341
0
VERTEX
70
32
8
21
10
1461557.184
20
5326500.956
30
10.341
0
VERTEX
70
32
8
21
10
1461646.526
20
5326488.342
30
10.341
0
VERTEX
70
32
8
21
10
1461514.566
20
5326574.43
30
10.341
0
VERTEX
70
32
8
21
10
1461466.466
20
5326617.051
30
10.341
0
VERTEX
70
32
8
21
10
1461359.135
20
5326707.607
30
10.341
0
VERTEX
70
32
8
21
10
1461346.332
20
5326725.849
30
10.341
0
VERTEX
70
32
8
21
10
1461316.713
20
5326765.211
30
10.341
0
VERTEX
70
32
8
21
10
1461388.943
20
5326763.663
30
10.341
0
VERTEX
70
32
8
21
10
1461390.119
20
5326763.78
30
10.341
0
VERTEX
70
32
8
21
10
1461387.809
20
5326814.462
30
10.341
0
VERTEX
70
32
8
21
10
1461387.369
20
5326831.995
30
10.341
0
VERTEX
70
32
8
21
10
1461413.684
20
5326812.845
30
10.341
0
VERTEX
70
32
8
21
10
1461434.197
20
5326797.929
30
10.341
0
VERTEX
70
32
8
21
10
1461571.946
20
5326690.534
30
10.341
0
VERTEX
70
32
8
21
10
1461647.024
20
5326677.33
30
10.341
0
VERTEX
70
32
8
21
10
1461731.658
20
5326661.153
30
10.341
0
VERTEX
70
32
8
21
10
1461748.783
20
5326658.222
30
10.341
0
VERTEX
70
32
8
21
10
1461768.973
20
5326654.819
30
10.341
0
VERTEX
70
32
8
21
10
1461740.212
20
5326678.461
30
10.341
0
VERTEX
70
32
8
21
10
1461625.279
20
5326764.302
30
10.341
0
VERTEX
70
32
8
21
10
1461716.163
20
5326746.571
30
10.341
0
VERTEX
70
32
8
21
10
1461768.446
20
5326735.589
30
10.341
0
VERTEX
70
32
8
21
10
1461823.089
20
5326726.39
30
10.341
0
VERTEX
70
32
8
21
10
1461886.625
20
5326715.859
30
10.341
0
VERTEX
70
32
8
21
10
1461795.881
20
5326791.101
30
10.341
0
VERTEX
70
32
8
21
10
1461752.507
20
5326821.605
30
10.341
0
VERTEX
70
32
8
21
10
1461790.133
20
5326814.995
30
10.341
0
VERTEX
70
32
8
21
10
1461811.826
20
5326814.022
30
10.341
0
VERTEX
70
32
8
21
10
1461870.873
20
5326811.372
30
10.341
0
VERTEX
70
32
8
21
10
1461891.275
20
5326810.352
30
10.341
0
VERTEX
70
32
8
21
10
1461897.26
20
5326810.176
30
10.341
0
SEQEND
8
21
0
POLYLINE
70
8
8
21
62
1
66
1
0
VERTEX
70
32
8
21
10
1461399.303
20
5326756.074
30
10.341
0
VERTEX
70
32
8
21
10
1461548.848
20
5326643.797
30
10.341
0
VERTEX
70
32
8
21
10
1461556.309
20
5326630.822
30
10.341
0
VERTEX
70
32
8
21
10
1461551.39
20
5326629.924
30
10.341
0
VERTEX
70
32
8
21
10
1461541.544
20
5326629.018
30
10.341
0
VERTEX
70
32
8
21
10
1461516.021
20
5326648.887
30
10.341
0
VERTEX
70
32
8
21
10
1461399.303
20
5326756.074
30
10.341
0
SEQEND
8
21
0
POLYLINE
70
8
8
22
62
1
66
1
0
VERTEX
70
32
8
22
10
1461341.618
20
5326234.248
30
10.841
0
VERTEX
70
32
8
22
10
1461337.335
20
5326238.355
30
10.841
0
VERTEX
70
32
8
22
10
1461345.99
20
5326233.335
30
10.841
0
VERTEX
70
32
8
22
10
1461484.681
20
5326190.514
30
10.841
0
VERTEX
70
32
8
22
10
1461533.868
20
5326175.982
30
10.841
0
VERTEX
70
32
8
22
10
1461571.251
20
5326167.724
30
10.841
0
VERTEX
70
32
8
22
10
1461574.087
20
5326163.089
30
10.841
0
VERTEX
70
32
8
22
10
1461589.847
20
5326137.324
30
10.841
0
VERTEX
70
32
8
22
10
1461512.175
20
5326147.152
30
10.841
0
VERTEX
70
32
8
22
10
1461477.048
20
5326151.596
30
10.841
0
VERTEX
70
32
8
22
10
1461472.147
20
5326161.974
30
10.841
0
VERTEX
70
32
8
22
10
1461470.38
20
5326165.715
30
10.841
0
VERTEX
70
32
8
22
10
1461347.548
20
5326228.786
30
10.841
0
VERTEX
70
32
8
22
10
1461345.45
20
5326230.386
30
10.841
0
VERTEX
70
32
8
22
10
1461344.438
20
5326231.158
30
10.841
0
VERTEX
70
32
8
22
10
1461342.94
20
5326232.448
30
10.841
0
VERTEX
70
32
8
22
10
1461342.346
20
5326232.958
30
10.841
0
VERTEX
70
32
8
22
10
1461341.717
20
5326233.713
30
10.841
0
VERTEX
70
32
8
22
10
1461341.536
20
5326233.93
30
10.841
0
VERTEX
70
32
8
22
10
1461341.604
20
5326234.197
30
10.841
0
VERTEX
70
32
8
22
10
1461341.618
20
5326234.248
30
10.841
0
SEQEND
8
22
0
POLYLINE
70
8
8
22
62
1
66
1
0
VERTEX
70
32
8
22
10
1461628.381
20
5326222.607
30
10.841
0
VERTEX
70
32
8
22
10
1461623.245
20
5326227.18
30
10.841
0
VERTEX
70
32
8
22
10
1461557.615
20
5326236.891
30
10.841
0
VERTEX
70
32
8
22
10
1461418.92
20
5326309.921
30
10.841
0
VERTEX
70
32
8
22
10
1461517.899
20
5326286.675
30
10.841
0
VERTEX
70
32
8
22
10
1461572.542
20
5326275.178
30
10.841
0
VERTEX
70
32
8
22
10
1461623.036
20
5326238.841
30
10.841
0
VERTEX
70
32
8
22
10
1461664.214
20
5326226.643
30
10.841
0
VERTEX
70
32
8
22
10
1461739.378
20
5326214.248
30
10.841
0
VERTEX
70
32
8
22
10
1461813.903
20
5326201.958
30
10.841
0
VERTEX
70
32
8
22
10
1461848.992
20
5326196.221
30
10.841
0
VERTEX
70
32
8
22
10
1461819.287
20
5326214.511
30
10.841
0
VERTEX
70
32
8
22
10
1461796.109
20
5326228.919
30
10.841
0
VERTEX
70
32
8
22
10
1461655.556
20
5326288.075
30
10.841
0
VERTEX
70
32
8
22
10
1461589.462
20
5326318.575
30
10.841
0
VERTEX
70
32
8
22
10
1461441.475
20
5326405.492
30
10.841
0
VERTEX
70
32
8
22
10
1461433.391
20
5326410.182
30
10.841
0
VERTEX
70
32
8
22
10
1461431.11
20
5326412.572
30
10.841
0
VERTEX
70
32
8
22
10
1461426.022
20
5326417.605
30
10.841
0
VERTEX
70
32
8
22
10
1461434.497
20
5326412.421
30
10.841
0
VERTEX
70
32
8
22
10
1461541.29
20
5326390.567
30
10.841
0
VERTEX
70
32
8
22
10
1461612.606
20
5326377.938
30
10.841
0
VERTEX
70
32
8
22
10
1461741.223
20
5326344.587
30
10.841
0
VERTEX
70
32
8
22
10
1461653.536
20
5326387.129
30
10.841
0
VERTEX
70
32
8
22
10
1461622.683
20
5326403.787
30
10.841
0
VERTEX
70
32
8
22
10
1461525.386
20
5326464.196
30
10.841
0
VERTEX
70
32
8
22
10
1461475.288
20
5326494.956
30
10.841
0
VERTEX
70
32
8
22
10
1461460.415
20
5326509.337
30
10.841
0
VERTEX
70
32
8
22
10
1461400.065
20
5326564.655
30
10.841
0
VERTEX
70
32
8
22
10
1461481.507
20
5326507.539
30
10.841
0
VERTEX
70
32
8
22
10
1461567.664
20
5326492.701
30
10.841
0
VERTEX
70
32
8
22
10
1461652.669
20
5326480.698
30
10.841
0
VERTEX
70
32
8
22
10
1461678.051
20
5326476.082
30
10.841
0
VERTEX
70
32
8
22
10
1461663.845
20
5326483.998
30
10.841
0
VERTEX
70
32
8
22
10
1461655.905
20
5326488.999
30
10.841
0
VERTEX
70
32
8
22
10
1461620.494
20
5326512.331
30
10.841
0
VERTEX
70
32
8
22
10
1461517.184
20
5326579.729
30
10.841
0
VERTEX
70
32
8
22
10
1461484.91
20
5326608.326
30
10.841
0
VERTEX
70
32
8
22
10
1461361.768
20
5326712.222
30
10.841
0
VERTEX
70
32
8
22
10
1461353.851
20
5326723.503
30
10.841
0
VERTEX
70
32
8
22
10
1461335.534
20
5326747.844
30
10.841
0
VERTEX
70
32
8
22
10
1461381.529
20
5326746.858
30
10.841
0
VERTEX
70
32
8
22
10
1461458.786
20
5326675.91
30
10.841
0
VERTEX
70
32
8
22
10
1461535.286
20
5326616.355
30
10.841
0
VERTEX
70
32
8
22
10
1461564.798
20
5326619.072
30
10.841
0
VERTEX
70
32
8
22
10
1461579.542
20
5326621.765
30
10.841
0
VERTEX
70
32
8
22
10
1461557.179
20
5326660.654
30
10.841
0
VERTEX
70
32
8
22
10
1461471.069
20
5326725.304
30
10.841
0
VERTEX
70
32
8
22
10
1461410.792
20
5326806.559
30
10.841
0
VERTEX
70
32
8
22
10
1461410.691
20
5326808.78
30
10.841
0
VERTEX
70
32
8
22
10
1461410.672
20
5326809.519
30
10.841
0
VERTEX
70
32
8
22
10
1461411.782
20
5326808.711
30
10.841
0
VERTEX
70
32
8
22
10
1461412.648
20
5326808.082
30
10.841
0
VERTEX
70
32
8
22
10
1461569.575
20
5326685.735
30
10.841
0
VERTEX
70
32
8
22
10
1461655.105
20
5326670.694
30
10.841
0
VERTEX
70
32
8
22
10
1461729.359
20
5326656.501
30
10.841
0
VERTEX
70
32
8
22
10
1461758.052
20
5326651.59
30
10.841
0
VERTEX
70
32
8
22
10
1461791.881
20
5326645.888
30
10.841
0
VERTEX
70
32
8
22
10
1461743.692
20
5326685.501
30
10.841
0
VERTEX
70
32
8
22
10
1461652.281
20
5326753.773
30
10.841
0
VERTEX
70
32
8
22
10
1461724.564
20
5326739.672
30
10.841
0
VERTEX
70
32
8
22
10
1461766.147
20
5326730.937
30
10.841
0
VERTEX
70
32
8
22
10
1461832.299
20
5326719.8
30
10.841
0
VERTEX
70
32
8
22
10
1461909.218
20
5326707.051
30
10.841
0
VERTEX
70
32
8
22
10
1461799.36
20
5326798.141
30
10.841
0
VERTEX
70
32
8
22
10
1461782.785
20
5326809.799
30
10.841
0
VERTEX
70
32
8
22
10
1461797.164
20
5326807.273
30
10.841
0
VERTEX
70
32
8
22
10
1461805.454
20
5326806.901
30
10.841
0
VERTEX
70
32
8
22
10
1461828.019
20
5326805.888
30
10.841
0
VERTEX
70
32
8
22
10
1461901.006
20
5326802.24
30
10.841
0
VERTEX
70
32
8
22
10
1461922.415
20
5326801.609
30
10.841
0
SEQEND
8
22
0
POLYLINE
70
8
8
23
62
1
66
1
0
VERTEX
70
32
8
23
10
1461765.995
20
5326204.364
30
11.341
0
VERTEX
70
32
8
23
10
1461823.181
20
5326194.933
30
11.341
0
VERTEX
70
32
8
23
10
1461873.756
20
5326186.664
30
11.341
0
VERTEX
70
32
8
23
10
1461830.941
20
5326213.026
30
11.341
0
VERTEX
70
32
8
23
10
1461797.534
20
5326233.792
30
11.341
0
VERTEX
70
32
8
23
10
1461675.525
20
5326285.144
30
11.341
0
VERTEX
70
32
8
23
10
1461591.538
20
5326323.901
30
11.341
0
VERTEX
70
32
8
23
10
1461461.31
20
5326400.388
30
11.341
0
VERTEX
70
32
8
23
10
1461552.9
20
5326381.646
30
11.341
0
VERTEX
70
32
8
23
10
1461610.102
20
5326371.516
30
11.341
0
VERTEX
70
32
8
23
10
1461797.176
20
5326323.006
30
11.341
0
VERTEX
70
32
8
23
10
1461669.635
20
5326384.883
30
11.341
0
VERTEX
70
32
8
23
10
1461624.76
20
5326409.113
30
11.341
0
VERTEX
70
32
8
23
10
1461483.242
20
5326496.978
30
11.341
0
VERTEX
70
32
8
23
10
1461477.906
20
5326500.254
30
11.341
0
VERTEX
70
32
8
23
10
1461476.322
20
5326501.785
30
11.341
0
VERTEX
70
32
8
23
10
1461469.895
20
5326507.677
30
11.341
0
VERTEX
70
32
8
23
10
1461478.569
20
5326501.594
30
11.341
0
VERTEX
70
32
8
23
10
1461578.145
20
5326484.445
30
11.341
0
VERTEX
70
32
8
23
10
1461650.165
20
5326474.276
30
11.341
0
VERTEX
70
32
8
23
10
1461711.47
20
5326463.125
30
11.341
0
VERTEX
70
32
8
23
10
1461677.159
20
5326482.246
30
11.341
0
VERTEX
70
32
8
23
10
1461657.982
20
5326494.325
30
11.341
0
VERTEX
70
32
8
23
10
1461572.453
20
5326550.679
30
11.341
0
VERTEX
70
32
8
23
10
1461519.803
20
5326585.027
30
11.341
0
VERTEX
70
32
8
23
10
1461503.355
20
5326599.601
30
11.341
0
VERTEX
70
32
8
23
10
1461364.401
20
5326716.838
30
11.341
0
VERTEX
70
32
8
23
10
1461361.37
20
5326721.157
30
11.341
0
VERTEX
70
32
8
23
10
1461354.356
20
5326730.478
30
11.341
0
VERTEX
70
32
8
23
10
1461371.968
20
5326730.1
30
11.341
0
VERTEX
70
32
8
23
10
1461401.551
20
5326702.933
30
11.341
0
VERTEX
70
32
8
23
10
1461529.028
20
5326603.693
30
11.341
0
VERTEX
70
32
8
23
10
1461578.205
20
5326608.22
30
11.341
0
VERTEX
70
32
8
23
10
1461602.775
20
5326612.707
30
11.341
0
VERTEX
70
32
8
23
10
1461565.51
20
5326677.511
30
11.341
0
VERTEX
70
32
8
23
10
1461553.747
20
5326686.343
30
11.341
0
VERTEX
70
32
8
23
10
1461544.798
20
5326698.405
30
11.341
0
VERTEX
70
32
8
23
10
1461567.204
20
5326680.937
30
11.341
0
VERTEX
70
32
8
23
10
1461663.186
20
5326664.058
30
11.341
0
VERTEX
70
32
8
23
10
1461727.06
20
5326651.849
30
11.341
0
VERTEX
70
32
8
23
10
1461767.321
20
5326644.958
30
11.341
0
VERTEX
70
32
8
23
10
1461814.79
20
5326636.957
30
11.341
0
VERTEX
70
32
8
23
10
1461747.171
20
5326692.541
30
11.341
0
VERTEX
70
32
8
23
10
1461679.284
20
5326743.245
30
11.341
0
VERTEX
70
32
8
23
10
1461732.966
20
5326732.772
30
11.341
0
VERTEX
70
32
8
23
10
1461763.848
20
5326726.285
30
11.341
0
VERTEX
70
32
8
23
10
1461841.509
20
5326713.211
30
11.341
0
VERTEX
70
32
8
23
10
1461931.81
20
5326698.243
30
11.341
0
VERTEX
70
32
8
23
10
1461834.821
20
5326778.664
30
11.341
0
VERTEX
70
32
8
23
10
1461810.072
20
5326799.159
30
11.341
0
VERTEX
70
32
8
23
10
1461910.736
20
5326794.127
30
11.341
0
VERTEX
70
32
8
23
10
1461947.57
20
5326793.041
30
11.341
0
SEQEND
8
23
0
POLYLINE
70
8
8
23
62
1
66
1
0
VERTEX
70
32
8
23
10
1461376.779
20
5326219.352
30
11.341
0
VERTEX
70
32
8
23
10
1461495.166
20
5326182.8
30
11.341
0
VERTEX
70
32
8
23
10
1461532.254
20
5326171.842
30
11.341
0
VERTEX
70
32
8
23
10
1461560.442
20
5326165.616
30
11.341
0
VERTEX
70
32
8
23
10
1461562.58
20
5326162.121
30
11.341
0
VERTEX
70
32
8
23
10
1461574.464
20
5326142.693
30
11.341
0
VERTEX
70
32
8
23
10
1461515.897
20
5326150.103
30
11.341
0
VERTEX
70
32
8
23
10
1461489.41
20
5326153.455
30
11.341
0
VERTEX
70
32
8
23
10
1461485.714
20
5326161.28
30
11.341
0
VERTEX
70
32
8
23
10
1461484.382
20
5326164.101
30
11.341
0
VERTEX
70
32
8
23
10
1461376.779
20
5326219.352
30
11.341
0
SEQEND
8
23
0
POLYLINE
70
8
8
23
62
1
66
1
0
VERTEX
70
32
8
23
10
1461459.578
20
5326293.737
30
11.341
0
VERTEX
70
32
8
23
10
1461530.748
20
5326277.022
30
11.341
0
VERTEX
70
32
8
23
10
1461570.038
20
5326268.756
30
11.341
0
VERTEX
70
32
8
23
10
1461620.975
20
5326232.101
30
11.341
0
VERTEX
70
32
8
23
10
1461559.305
20
5326241.226
30
11.341
0
VERTEX
70
32
8
23
10
1461459.578
20
5326293.737
30
11.341
0
SEQEND
8
23
0
POLYLINE
70
8
8
24
62
1
66
1
0
VERTEX
70
32
8
24
10
1461823.6
20
5326186.221
30
11.841
0
VERTEX
70
32
8
24
10
1461855.427
20
5326184.153
30
11.841
0
VERTEX
70
32
8
24
10
1461898.521
20
5326177.107
30
11.841
0
VERTEX
70
32
8
24
10
1461842.596
20
5326211.541
30
11.841
0
VERTEX
70
32
8
24
10
1461798.959
20
5326238.666
30
11.841
0
VERTEX
70
32
8
24
10
1461695.494
20
5326282.212
30
11.841
0
VERTEX
70
32
8
24
10
1461593.614
20
5326329.227
30
11.841
0
VERTEX
70
32
8
24
10
1461495.518
20
5326386.842
30
11.841
0
VERTEX
70
32
8
24
10
1461564.51
20
5326372.724
30
11.841
0
VERTEX
70
32
8
24
10
1461607.598
20
5326365.093
30
11.841
0
VERTEX
70
32
8
24
10
1461785.903
20
5326318.858
30
11.841
0
VERTEX
70
32
8
24
10
1461819.629
20
5326309.355
30
11.841
0
VERTEX
70
32
8
24
10
1461834.888
20
5326308.44
30
11.841
0
VERTEX
70
32
8
24
10
1461827.543
20
5326313.01
30
11.841
0
VERTEX
70
32
8
24
10
1461821.761
20
5326316.644
30
11.841
0
VERTEX
70
32
8
24
10
1461685.734
20
5326382.638
30
11.841
0
VERTEX
70
32
8
24
10
1461626.836
20
5326414.439
30
11.841
0
VERTEX
70
32
8
24
10
1461503.869
20
5326490.786
30
11.841
0
VERTEX
70
32
8
24
10
1461588.626
20
5326476.189
30
11.841
0
VERTEX
70
32
8
24
10
1461647.661
20
5326467.853
30
11.841
0
VERTEX
70
32
8
24
10
1461744.889
20
5326450.169
30
11.841
0
VERTEX
70
32
8
24
10
1461690.473
20
5326480.494
30
11.841
0
VERTEX
70
32
8
24
10
1461660.058
20
5326499.651
30
11.841
0
VERTEX
70
32
8
24
10
1461524.411
20
5326589.027
30
11.841
0
VERTEX
70
32
8
24
10
1461522.421
20
5326590.325
30
11.841
0
VERTEX
70
32
8
24
10
1461521.8
20
5326590.876
30
11.841
0
VERTEX
70
32
8
24
10
1461507.845
20
5326602.65
30
11.841
0
VERTEX
70
32
8
24
10
1461522.77
20
5326591.031
30
11.841
0
VERTEX
70
32
8
24
10
1461591.613
20
5326597.368
30
11.841
0
VERTEX
70
32
8
24
10
1461626.008
20
5326603.649
30
11.841
0
VERTEX
70
32
8
24
10
1461595.576
20
5326656.57
30
11.841
0
VERTEX
70
32
8
24
10
1461587.34
20
5326672.181
30
11.841
0
VERTEX
70
32
8
24
10
1461671.267
20
5326657.421
30
11.841
0
VERTEX
70
32
8
24
10
1461724.761
20
5326647.197
30
11.841
0
VERTEX
70
32
8
24
10
1461776.591
20
5326638.326
30
11.841
0
VERTEX
70
32
8
24
10
1461837.698
20
5326628.026
30
11.841
0
VERTEX
70
32
8
24
10
1461750.65
20
5326699.581
30
11.841
0
VERTEX
70
32
8
24
10
1461706.286
20
5326732.716
30
11.841
0
VERTEX
70
32
8
24
10
1461741.367
20
5326725.872
30
11.841
0
VERTEX
70
32
8
24
10
1461761.548
20
5326721.633
30
11.841
0
VERTEX
70
32
8
24
10
1461850.72
20
5326706.621
30
11.841
0
VERTEX
70
32
8
24
10
1461954.403
20
5326689.435
30
11.841
0
VERTEX
70
32
8
24
10
1461922.139
20
5326716.187
30
11.841
0
VERTEX
70
32
8
24
10
1461832.509
20
5326790.411
30
11.841
0
VERTEX
70
32
8
24
10
1461920.466
20
5326786.015
30
11.841
0
VERTEX
70
32
8
24
10
1461962.294
20
5326784.782
30
11.841
0
VERTEX
70
32
8
24
10
1461972.725
20
5326784.474
30
11.841
0
SEQEND
8
24
0
POLYLINE
70
8
8
24
62
1
66
1
0
VERTEX
70
32
8
24
10
1461425.882
20
5326199.715
30
11.841
0
VERTEX
70
32
8
24
10
1461505.65
20
5326175.086
30
11.841
0
VERTEX
70
32
8
24
10
1461530.64
20
5326167.703
30
11.841
0
VERTEX
70
32
8
24
10
1461549.633
20
5326163.507
30
11.841
0
VERTEX
70
32
8
24
10
1461551.074
20
5326161.152
30
11.841
0
VERTEX
70
32
8
24
10
1461559.081
20
5326148.062
30
11.841
0
VERTEX
70
32
8
24
10
1461519.619
20
5326153.055
30
11.841
0
VERTEX
70
32
8
24
10
1461501.772
20
5326155.313
30
11.841
0
VERTEX
70
32
8
24
10
1461499.282
20
5326160.586
30
11.841
0
VERTEX
70
32
8
24
10
1461498.385
20
5326162.486
30
11.841
0
VERTEX
70
32
8
24
10
1461425.882
20
5326199.715
30
11.841
0
SEQEND
8
24
0
POLYLINE
70
8
8
24
62
1
66
1
0
VERTEX
70
32
8
24
10
1461500.235
20
5326277.554
30
11.841
0
VERTEX
70
32
8
24
10
1461543.596
20
5326267.37
30
11.841
0
VERTEX
70
32
8
24
10
1461567.534
20
5326262.333
30
11.841
0
VERTEX
70
32
8
24
10
1461598.568
20
5326240.001
30
11.841
0
VERTEX
70
32
8
24
10
1461560.995
20
5326245.56
30
11.841
0
VERTEX
70
32
8
24
10
1461500.235
20
5326277.554
30
11.841
0
SEQEND
8
24
0
POLYLINE
70
8
8
25
62
1
66
1
0
VERTEX
70
32
8
25
10
1461474.985
20
5326180.077
30
12.341
0
VERTEX
70
32
8
25
10
1461516.135
20
5326167.372
30
12.341
0
VERTEX
70
32
8
25
10
1461529.026
20
5326163.563
30
12.341
0
VERTEX
70
32
8
25
10
1461538.824
20
5326161.399
30
12.341
0
VERTEX
70
32
8
25
10
1461539.567
20
5326160.184
30
12.341
0
VERTEX
70
32
8
25
10
1461543.698
20
5326153.431
30
12.341
0
VERTEX
70
32
8
25
10
1461523.341
20
5326156.007
30
12.341
0
VERTEX
70
32
8
25
10
1461514.134
20
5326157.172
30
12.341
0
VERTEX
70
32
8
25
10
1461512.849
20
5326159.892
30
12.341
0
VERTEX
70
32
8
25
10
1461512.387
20
5326160.872
30
12.341
0
VERTEX
70
32
8
25
10
1461474.985
20
5326180.077
30
12.341
0
SEQEND
8
25
0
POLYLINE
70
8
8
25
62
1
66
1
0
VERTEX
70
32
8
25
10
1461540.892
20
5326261.37
30
12.341
0
VERTEX
70
32
8
25
10
1461556.445
20
5326257.717
30
12.341
0
VERTEX
70
32
8
25
10
1461565.03
20
5326255.911
30
12.341
0
VERTEX
70
32
8
25
10
1461576.161
20
5326247.901
30
12.341
0
VERTEX
70
32
8
25
10
1461562.685
20
5326249.895
30
12.341
0
VERTEX
70
32
8
25
10
1461540.892
20
5326261.37
30
12.341
0
SEQEND
8
25
0
POLYLINE
70
8
8
25
62
1
66
1
0
VERTEX
70
32
8
25
10
1461822.204
20
5326177.164
30
12.341
0
VERTEX
70
32
8
25
10
1461892.378
20
5326172.604
30
12.341
0
VERTEX
70
32
8
25
10
1461923.285
20
5326167.55
30
12.341
0
VERTEX
70
32
8
25
10
1461854.25
20
5326210.056
30
12.341
0
VERTEX
70
32
8
25
10
1461800.384
20
5326243.54
30
12.341
0
VERTEX
70
32
8
25
10
1461715.463
20
5326279.281
30
12.341
0
VERTEX
70
32
8
25
10
1461595.691
20
5326334.553
30
12.341
0
VERTEX
70
32
8
25
10
1461529.726
20
5326373.296
30
12.341
0
VERTEX
70
32
8
25
10
1461576.119
20
5326363.802
30
12.341
0
VERTEX
70
32
8
25
10
1461605.094
20
5326358.671
30
12.341
0
VERTEX
70
32
8
25
10
1461724.994
20
5326327.58
30
12.341
0
VERTEX
70
32
8
25
10
1461817.35
20
5326301.559
30
12.341
0
VERTEX
70
32
8
25
10
1461859.132
20
5326299.052
30
12.341
0
VERTEX
70
32
8
25
10
1461839.02
20
5326311.568
30
12.341
0
VERTEX
70
32
8
25
10
1461823.186
20
5326321.517
30
12.341
0
VERTEX
70
32
8
25
10
1461701.833
20
5326380.392
30
12.341
0
VERTEX
70
32
8
25
10
1461628.912
20
5326419.764
30
12.341
0
VERTEX
70
32
8
25
10
1461532.992
20
5326479.319
30
12.341
0
VERTEX
70
32
8
25
10
1461599.106
20
5326467.933
30
12.341
0
VERTEX
70
32
8
25
10
1461645.157
20
5326461.431
30
12.341
0
VERTEX
70
32
8
25
10
1461778.308
20
5326437.212
30
12.341
0
VERTEX
70
32
8
25
10
1461703.787
20
5326478.742
30
12.341
0
VERTEX
70
32
8
25
10
1461662.134
20
5326504.976
30
12.341
0
VERTEX
70
32
8
25
10
1461546.55
20
5326581.134
30
12.341
0
VERTEX
70
32
8
25
10
1461605.021
20
5326586.517
30
12.341
0
VERTEX
70
32
8
25
10
1461649.241
20
5326594.591
30
12.341
0
VERTEX
70
32
8
25
10
1461629.728
20
5326628.524
30
12.341
0
VERTEX
70
32
8
25
10
1461611.706
20
5326662.68
30
12.341
0
VERTEX
70
32
8
25
10
1461679.348
20
5326650.785
30
12.341
0
VERTEX
70
32
8
25
10
1461722.461
20
5326642.544
30
12.341
0
VERTEX
70
32
8
25
10
1461785.86
20
5326631.694
30
12.341
0
VERTEX
70
32
8
25
10
1461860.606
20
5326619.094
30
12.341
0
VERTEX
70
32
8
25
10
1461754.13
20
5326706.621
30
12.341
0
VERTEX
70
32
8
25
10
1461733.289
20
5326722.187
30
12.341
0
VERTEX
70
32
8
25
10
1461749.769
20
5326718.972
30
12.341
0
VERTEX
70
32
8
25
10
1461759.249
20
5326716.98
30
12.341
0
VERTEX
70
32
8
25
10
1461859.93
20
5326700.031
30
12.341
0
VERTEX
70
32
8
25
10
1461964.505
20
5326682.698
30
12.341
0
VERTEX
70
32
8
25
10
1461969.309
20
5326682.42
30
12.341
0
VERTEX
70
32
8
25
10
1461972.145
20
5326682.533
30
12.341
0
VERTEX
70
32
8
25
10
1461967.394
20
5326688.544
30
12.341
0
VERTEX
70
32
8
25
10
1461854.947
20
5326781.664
30
12.341
0
VERTEX
70
32
8
25
10
1461930.196
20
5326777.903
30
12.341
0
VERTEX
70
32
8
25
10
1461965.981
20
5326776.847
30
12.341
0
VERTEX
70
32
8
25
10
1461997.88
20
5326775.907
30
12.341
0
SEQEND
8
25
0
POLYLINE
70
8
8
26
62
1
66
1
0
VERTEX
70
32
8
26
10
1461524.087
20
5326160.44
30
12.841
0
VERTEX
70
32
8
26
10
1461526.619
20
5326159.658
30
12.841
0
VERTEX
70
32
8
26
10
1461527.412
20
5326159.424
30
12.841
0
VERTEX
70
32
8
26
10
1461528.015
20
5326159.291
30
12.841
0
VERTEX
70
32
8
26
10
1461528.061
20
5326159.216
30
12.841
0
VERTEX
70
32
8
26
10
1461528.315
20
5326158.8
30
12.841
0
VERTEX
70
32
8
26
10
1461527.063
20
5326158.959
30
12.841
0
VERTEX
70
32
8
26
10
1461526.496
20
5326159.03
30
12.841
0
VERTEX
70
32
8
26
10
1461526.417
20
5326159.198
30
12.841
0
VERTEX
70
32
8
26
10
1461526.389
20
5326159.258
30
12.841
0
VERTEX
70
32
8
26
10
1461524.087
20
5326160.44
30
12.841
0
SEQEND
8
26
0
POLYLINE
70
8
8
26
62
1
66
1
0
VERTEX
70
32
8
26
10
1461820.809
20
5326168.107
30
12.841
0
VERTEX
70
32
8
26
10
1461929.329
20
5326161.054
30
12.841
0
VERTEX
70
32
8
26
10
1461948.049
20
5326157.994
30
12.841
0
VERTEX
70
32
8
26
10
1461865.904
20
5326208.571
30
12.841
0
VERTEX
70
32
8
26
10
1461801.809
20
5326248.413
30
12.841
0
VERTEX
70
32
8
26
10
1461735.432
20
5326276.35
30
12.841
0
VERTEX
70
32
8
26
10
1461597.767
20
5326339.878
30
12.841
0
VERTEX
70
32
8
26
10
1461563.934
20
5326359.749
30
12.841
0
VERTEX
70
32
8
26
10
1461587.729
20
5326354.88
30
12.841
0
VERTEX
70
32
8
26
10
1461602.59
20
5326352.248
30
12.841
0
VERTEX
70
32
8
26
10
1461664.085
20
5326336.302
30
12.841
0
VERTEX
70
32
8
26
10
1461815.07
20
5326293.763
30
12.841
0
VERTEX
70
32
8
26
10
1461883.376
20
5326289.665
30
12.841
0
VERTEX
70
32
8
26
10
1461850.498
20
5326310.125
30
12.841
0
VERTEX
70
32
8
26
10
1461824.611
20
5326326.391
30
12.841
0
VERTEX
70
32
8
26
10
1461717.932
20
5326378.147
30
12.841
0
VERTEX
70
32
8
26
10
1461630.989
20
5326425.09
30
12.841
0
VERTEX
70
32
8
26
10
1461562.114
20
5326467.853
30
12.841
0
VERTEX
70
32
8
26
10
1461609.587
20
5326459.677
30
12.841
0
VERTEX
70
32
8
26
10
1461642.653
20
5326455.008
30
12.841
0
VERTEX
70
32
8
26
10
1461811.728
20
5326424.256
30
12.841
0
VERTEX
70
32
8
26
10
1461717.101
20
5326476.99
30
12.841
0
VERTEX
70
32
8
26
10
1461664.211
20
5326510.302
30
12.841
0
VERTEX
70
32
8
26
10
1461571.559
20
5326571.35
30
12.841
0
VERTEX
70
32
8
26
10
1461618.429
20
5326575.665
30
12.841
0
VERTEX
70
32
8
26
10
1461672.474
20
5326585.533
30
12.841
0
VERTEX
70
32
8
26
10
1461663.88
20
5326600.479
30
12.841
0
VERTEX
70
32
8
26
10
1461636.073
20
5326653.18
30
12.841
0
VERTEX
70
32
8
26
10
1461687.429
20
5326644.149
30
12.841
0
VERTEX
70
32
8
26
10
1461720.162
20
5326637.892
30
12.841
0
VERTEX
70
32
8
26
10
1461795.129
20
5326625.062
30
12.841
0
VERTEX
70
32
8
26
10
1461883.514
20
5326610.163
30
12.841
0
VERTEX
70
32
8
26
10
1461767.809
20
5326705.276
30
12.841
0
VERTEX
70
32
8
26
10
1461759.806
20
5326711.847
30
12.841
0
VERTEX
70
32
8
26
10
1461869.14
20
5326693.441
30
12.841
0
VERTEX
70
32
8
26
10
1461962.192
20
5326678.018
30
12.841
0
VERTEX
70
32
8
26
10
1461976.576
20
5326677.187
30
12.841
0
VERTEX
70
32
8
26
10
1461985.067
20
5326677.524
30
12.841
0
VERTEX
70
32
8
26
10
1461970.843
20
5326695.522
30
12.841
0
VERTEX
70
32
8
26
10
1461877.385
20
5326772.916
30
12.841
0
VERTEX
70
32
8
26
10
1461939.927
20
5326769.79
30
12.841
0
VERTEX
70
32
8
26
10
1461969.668
20
5326768.913
30
12.841
0
VERTEX
70
32
8
26
10
1462023.035
20
5326767.34
30
12.841
0
SEQEND
8
26
0
POLYLINE
70
8
8
26
62
1
66
1
0
VERTEX
70
32
8
26
10
1461828.644
20
5326090.351
30
12.841
0
VERTEX
70
32
8
26
10
1461812.052
20
5326111.27
30
12.841
0
SEQEND
8
26
0
POLYLINE
70
8
8
27
62
1
66
1
0
VERTEX
70
32
8
27
10
1461819.413
20
5326159.049
30
13.341
0
VERTEX
70
32
8
27
10
1461966.28
20
5326149.505
30
13.341
0
VERTEX
70
32
8
27
10
1461972.813
20
5326148.437
30
13.341
0
VERTEX
70
32
8
27
10
1461877.559
20
5326207.086
30
13.341
0
VERTEX
70
32
8
27
10
1461803.234
20
5326253.287
30
13.341
0
VERTEX
70
32
8
27
10
1461755.401
20
5326273.419
30
13.341
0
VERTEX
70
32
8
27
10
1461599.843
20
5326345.204
30
13.341
0
VERTEX
70
32
8
27
10
1461598.143
20
5326346.203
30
13.341
0
VERTEX
70
32
8
27
10
1461599.339
20
5326345.958
30
13.341
0
VERTEX
70
32
8
27
10
1461600.086
20
5326345.826
30
13.341
0
VERTEX
70
32
8
27
10
1461603.177
20
5326345.024
30
13.341
0
VERTEX
70
32
8
27
10
1461812.79
20
5326285.967
30
13.341
0
VERTEX
70
32
8
27
10
1461907.621
20
5326280.277
30
13.341
0
VERTEX
70
32
8
27
10
1461861.975
20
5326308.682
30
13.341
0
VERTEX
70
32
8
27
10
1461826.036
20
5326331.265
30
13.341
0
VERTEX
70
32
8
27
10
1461734.031
20
5326375.902
30
13.341
0
VERTEX
70
32
8
27
10
1461633.065
20
5326430.416
30
13.341
0
VERTEX
70
32
8
27
10
1461591.236
20
5326456.387
30
13.341
0
VERTEX
70
32
8
27
10
1461620.067
20
5326451.421
30
13.341
0
VERTEX
70
32
8
27
10
1461640.149
20
5326448.586
30
13.341
0
VERTEX
70
32
8
27
10
1461845.147
20
5326411.299
30
13.341
0
VERTEX
70
32
8
27
10
1461730.416
20
5326475.238
30
13.341
0
VERTEX
70
32
8
27
10
1461666.287
20
5326515.628
30
13.341
0
VERTEX
70
32
8
27
10
1461596.567
20
5326561.566
30
13.341
0
VERTEX
70
32
8
27
10
1461631.836
20
5326564.813
30
13.341
0
VERTEX
70
32
8
27
10
1461689.573
20
5326575.355
30
13.341
0
VERTEX
70
32
8
27
10
1461695.707
20
5326576.475
30
13.341
0
VERTEX
70
32
8
27
10
1461692.754
20
5326582.435
30
13.341
0
VERTEX
70
32
8
27
10
1461660.44
20
5326643.68
30
13.341
0
VERTEX
70
32
8
27
10
1461695.51
20
5326637.512
30
13.341
0
VERTEX
70
32
8
27
10
1461717.863
20
5326633.24
30
13.341
0
VERTEX
70
32
8
27
10
1461804.398
20
5326618.429
30
13.341
0
VERTEX
70
32
8
27
10
1461906.423
20
5326601.232
30
13.341
0
VERTEX
70
32
8
27
10
1461860.747
20
5326638.778
30
13.341
0
VERTEX
70
32
8
27
10
1461782.555
20
5326702.978
30
13.341
0
VERTEX
70
32
8
27
10
1461878.35
20
5326686.851
30
13.341
0
VERTEX
70
32
8
27
10
1461959.879
20
5326673.338
30
13.341
0
VERTEX
70
32
8
27
10
1461983.843
20
5326671.954
30
13.341
0
VERTEX
70
32
8
27
10
1461997.989
20
5326672.516
30
13.341
0
VERTEX
70
32
8
27
10
1461974.291
20
5326702.5
30
13.341
0
VERTEX
70
32
8
27
10
1461899.823
20
5326764.168
30
13.341
0
VERTEX
70
32
8
27
10
1461949.657
20
5326761.678
30
13.341
0
VERTEX
70
32
8
27
10
1461973.355
20
5326760.979
30
13.341
0
VERTEX
70
32
8
27
10
1462018.453
20
5326759.649
30
13.341
0
VERTEX
70
32
8
27
10
1462031.826
20
5326761.79
30
13.341
0
VERTEX
70
32
8
27
10
1462034.685
20
5326763.386
30
13.341
0
SEQEND
8
27
0
POLYLINE
70
8
8
27
62
1
66
1
0
VERTEX
70
32
8
27
10
1461857.26
20
5326084.323
30
13.341
0
VERTEX
70
32
8
27
10
1461842.906
20
5326094.911
30
13.341
0
VERTEX
70
32
8
27
10
1461838.883
20
5326099.984
30
13.341
0
VERTEX
70
32
8
27
10
1461820.365
20
5326123.332
30
13.341
0
VERTEX
70
32
8
27
10
1461814.96
20
5326130.146
30
13.341
0
SEQEND
8
27
0
POLYLINE
70
8
8
28
62
1
66
1
0
VERTEX
70
32
8
28
10
1461818.018
20
5326149.992
30
13.841
0
VERTEX
70
32
8
28
10
1461829.685
20
5326149.234
30
13.841
0
VERTEX
70
32
8
28
10
1461985.112
20
5326139.651
30
13.841
0
VERTEX
70
32
8
28
10
1461996.253
20
5326141.791
30
13.841
0
VERTEX
70
32
8
28
10
1462001.793
20
5326143.832
30
13.841
0
VERTEX
70
32
8
28
10
1461986.693
20
5326145.581
30
13.841
0
VERTEX
70
32
8
28
10
1461889.213
20
5326205.601
30
13.841
0
VERTEX
70
32
8
28
10
1461804.659
20
5326258.16
30
13.841
0
VERTEX
70
32
8
28
10
1461775.37
20
5326270.488
30
13.841
0
VERTEX
70
32
8
28
10
1461677.532
20
5326315.637
30
13.841
0
VERTEX
70
32
8
28
10
1461810.511
20
5326278.171
30
13.841
0
VERTEX
70
32
8
28
10
1461931.865
20
5326270.89
30
13.841
0
VERTEX
70
32
8
28
10
1461873.452
20
5326307.239
30
13.841
0
VERTEX
70
32
8
28
10
1461827.461
20
5326336.138
30
13.841
0
VERTEX
70
32
8
28
10
1461750.129
20
5326373.656
30
13.841
0
VERTEX
70
32
8
28
10
1461635.142
20
5326435.742
30
13.841
0
VERTEX
70
32
8
28
10
1461620.358
20
5326444.92
30
13.841
0
VERTEX
70
32
8
28
10
1461630.548
20
5326443.166
30
13.841
0
VERTEX
70
32
8
28
10
1461637.645
20
5326442.163
30
13.841
0
VERTEX
70
32
8
28
10
1461717.518
20
5326427.635
30
13.841
0
VERTEX
70
32
8
28
10
1461846.985
20
5326402.908
30
13.841
0
VERTEX
70
32
8
28
10
1461869.998
20
5326401.647
30
13.841
0
VERTEX
70
32
8
28
10
1461859
20
5326408.565
30
13.841
0
VERTEX
70
32
8
28
10
1461850.263
20
5326414.116
30
13.841
0
VERTEX
70
32
8
28
10
1461743.73
20
5326473.486
30
13.841
0
VERTEX
70
32
8
28
10
1461668.363
20
5326520.954
30
13.841
0
VERTEX
70
32
8
28
10
1461621.575
20
5326551.782
30
13.841
0
VERTEX
70
32
8
28
10
1461645.244
20
5326553.961
30
13.841
0
VERTEX
70
32
8
28
10
1461683.99
20
5326561.035
30
13.841
0
VERTEX
70
32
8
28
10
1461718.94
20
5326567.417
30
13.841
0
VERTEX
70
32
8
28
10
1461702.115
20
5326601.375
30
13.841
0
VERTEX
70
32
8
28
10
1461684.807
20
5326634.179
30
13.841
0
VERTEX
70
32
8
28
10
1461703.591
20
5326630.876
30
13.841
0
VERTEX
70
32
8
28
10
1461715.564
20
5326628.588
30
13.841
0
VERTEX
70
32
8
28
10
1461813.667
20
5326611.797
30
13.841
0
VERTEX
70
32
8
28
10
1461920.559
20
5326593.779
30
13.841
0
VERTEX
70
32
8
28
10
1461924.678
20
5326593.03
30
13.841
0
VERTEX
70
32
8
28
10
1461927.159
20
5326593.154
30
13.841
0
VERTEX
70
32
8
28
10
1461922.563
20
5326597.834
30
13.841
0
VERTEX
70
32
8
28
10
1461805.305
20
5326694.109
30
13.841
0
VERTEX
70
32
8
28
10
1461887.56
20
5326680.261
30
13.841
0
VERTEX
70
32
8
28
10
1461957.566
20
5326668.658
30
13.841
0
VERTEX
70
32
8
28
10
1461991.11
20
5326666.721
30
13.841
0
VERTEX
70
32
8
28
10
1462010.911
20
5326667.507
30
13.841
0
VERTEX
70
32
8
28
10
1461977.74
20
5326709.478
30
13.841
0
VERTEX
70
32
8
28
10
1461922.261
20
5326755.421
30
13.841
0
VERTEX
70
32
8
28
10
1461959.387
20
5326753.565
30
13.841
0
VERTEX
70
32
8
28
10
1461977.042
20
5326753.045
30
13.841
0
VERTEX
70
32
8
28
10
1462010.64
20
5326752.054
30
13.841
0
VERTEX
70
32
8
28
10
1462038.839
20
5326756.568
30
13.841
0
VERTEX
70
32
8
28
10
1462044.867
20
5326759.933
30
13.841
0
SEQEND
8
28
0
POLYLINE
70
8
8
28
62
1
66
1
0
VERTEX
70
32
8
28
10
1461954.445
20
5326066.048
30
13.841
0
VERTEX
70
32
8
28
10
1461952.405
20
5326066.95
30
13.841
0
VERTEX
70
32
8
28
10
1461931.932
20
5326071.18
30
13.841
0
VERTEX
70
32
8
28
10
1461906.583
20
5326076.417
30
13.841
0
VERTEX
70
32
8
28
10
1461827.146
20
5326141.687
30
13.841
0
VERTEX
70
32
8
28
10
1461820.878
20
5326146.311
30
13.841
0
VERTEX
70
32
8
28
10
1461818.807
20
5326147.838
30
13.841
0
VERTEX
70
32
8
28
10
1461817.868
20
5326149.021
30
13.841
0
SEQEND
8
28
0
POLYLINE
70
8
8
29
62
1
66
1
0
VERTEX
70
32
8
29
10
1461977.369
20
5326062.497
30
14.341
0
VERTEX
70
32
8
29
10
1461956.084
20
5326071.913
30
14.341
0
VERTEX
70
32
8
29
10
1461939.232
20
5326075.394
30
14.341
0
VERTEX
70
32
8
29
10
1461918.366
20
5326079.705
30
14.341
0
VERTEX
70
32
8
29
10
1461844.633
20
5326140.288
30
14.341
0
VERTEX
70
32
8
29
10
1461983.007
20
5326131.756
30
14.341
0
VERTEX
70
32
8
29
10
1462018.164
20
5326138.508
30
14.341
0
VERTEX
70
32
8
29
10
1462035.646
20
5326144.951
30
14.341
0
VERTEX
70
32
8
29
10
1461987.996
20
5326150.47
30
14.341
0
VERTEX
70
32
8
29
10
1461900.867
20
5326204.117
30
14.341
0
VERTEX
70
32
8
29
10
1461806.085
20
5326263.034
30
14.341
0
VERTEX
70
32
8
29
10
1461795.34
20
5326267.556
30
14.341
0
VERTEX
70
32
8
29
10
1461759.447
20
5326284.12
30
14.341
0
VERTEX
70
32
8
29
10
1461808.231
20
5326270.375
30
14.341
0
VERTEX
70
32
8
29
10
1461956.11
20
5326261.502
30
14.341
0
VERTEX
70
32
8
29
10
1461884.929
20
5326305.797
30
14.341
0
VERTEX
70
32
8
29
10
1461828.886
20
5326341.012
30
14.341
0
VERTEX
70
32
8
29
10
1461766.228
20
5326371.411
30
14.341
0
VERTEX
70
32
8
29
10
1461655.349
20
5326431.278
30
14.341
0
VERTEX
70
32
8
29
10
1461844.706
20
5326395.112
30
14.341
0
VERTEX
70
32
8
29
10
1461893.732
20
5326392.426
30
14.341
0
VERTEX
70
32
8
29
10
1461870.301
20
5326407.165
30
14.341
0
VERTEX
70
32
8
29
10
1461851.688
20
5326418.99
30
14.341
0
VERTEX
70
32
8
29
10
1461757.044
20
5326471.734
30
14.341
0
VERTEX
70
32
8
29
10
1461670.44
20
5326526.279
30
14.341
0
VERTEX
70
32
8
29
10
1461646.584
20
5326541.998
30
14.341
0
VERTEX
70
32
8
29
10
1461658.652
20
5326543.109
30
14.341
0
VERTEX
70
32
8
29
10
1461678.408
20
5326546.716
30
14.341
0
VERTEX
70
32
8
29
10
1461742.173
20
5326558.359
30
14.341
0
VERTEX
70
32
8
29
10
1461711.476
20
5326620.316
30
14.341
0
VERTEX
70
32
8
29
10
1461709.174
20
5326624.679
30
14.341
0
VERTEX
70
32
8
29
10
1461711.672
20
5326624.24
30
14.341
0
VERTEX
70
32
8
29
10
1461713.264
20
5326623.935
30
14.341
0
VERTEX
70
32
8
29
10
1461822.936
20
5326605.165
30
14.341
0
VERTEX
70
32
8
29
10
1461918.246
20
5326589.099
30
14.341
0
VERTEX
70
32
8
29
10
1461934.208
20
5326586.197
30
14.341
0
VERTEX
70
32
8
29
10
1461943.821
20
5326586.676
30
14.341
0
VERTEX
70
32
8
29
10
1461926.012
20
5326604.811
30
14.341
0
VERTEX
70
32
8
29
10
1461828.054
20
5326685.24
30
14.341
0
VERTEX
70
32
8
29
10
1461896.77
20
5326673.672
30
14.341
0
VERTEX
70
32
8
29
10
1461955.253
20
5326663.978
30
14.341
0
VERTEX
70
32
8
29
10
1461998.377
20
5326661.488
30
14.341
0
VERTEX
70
32
8
29
10
1462023.833
20
5326662.498
30
14.341
0
VERTEX
70
32
8
29
10
1461981.188
20
5326716.455
30
14.341
0
VERTEX
70
32
8
29
10
1461944.699
20
5326746.673
30
14.341
0
VERTEX
70
32
8
29
10
1461969.117
20
5326745.453
30
14.341
0
VERTEX
70
32
8
29
10
1461980.73
20
5326745.11
30
14.341
0
VERTEX
70
32
8
29
10
1462002.828
20
5326744.459
30
14.341
0
VERTEX
70
32
8
29
10
1462045.852
20
5326751.346
30
14.341
0
VERTEX
70
32
8
29
10
1462055.05
20
5326756.48
30
14.341
0
SEQEND
8
29
0
POLYLINE
70
8
8
30
62
1
66
1
0
VERTEX
70
32
8
30
10
1462000.293
20
5326058.947
30
14.841
0
VERTEX
70
32
8
30
10
1461989.515
20
5326063.714
30
14.841
0
VERTEX
70
32
8
30
10
1461959.763
20
5326076.875
30
14.841
0
VERTEX
70
32
8
30
10
1461946.531
20
5326079.608
30
14.841
0
VERTEX
70
32
8
30
10
1461930.148
20
5326082.993
30
14.841
0
VERTEX
70
32
8
30
10
1461872.256
20
5326130.56
30
14.841
0
VERTEX
70
32
8
30
10
1461980.902
20
5326123.862
30
14.841
0
VERTEX
70
32
8
30
10
1462040.075
20
5326135.226
30
14.841
0
VERTEX
70
32
8
30
10
1462069.498
20
5326146.07
30
14.841
0
VERTEX
70
32
8
30
10
1461989.3
20
5326155.358
30
14.841
0
VERTEX
70
32
8
30
10
1461912.521
20
5326202.632
30
14.841
0
VERTEX
70
32
8
30
10
1461817.216
20
5326261.874
30
14.841
0
VERTEX
70
32
8
30
10
1461857.034
20
5326259.514
30
14.841
0
VERTEX
70
32
8
30
10
1461980.354
20
5326252.115
30
14.841
0
VERTEX
70
32
8
30
10
1461896.406
20
5326304.354
30
14.841
0
VERTEX
70
32
8
30
10
1461830.311
20
5326345.885
30
14.841
0
VERTEX
70
32
8
30
10
1461782.327
20
5326369.165
30
14.841
0
VERTEX
70
32
8
30
10
1461697.414
20
5326415.012
30
14.841
0
VERTEX
70
32
8
30
10
1461842.426
20
5326387.316
30
14.841
0
VERTEX
70
32
8
30
10
1461917.466
20
5326383.205
30
14.841
0
VERTEX
70
32
8
30
10
1461881.603
20
5326405.764
30
14.841
0
VERTEX
70
32
8
30
10
1461853.113
20
5326423.863
30
14.841
0
VERTEX
70
32
8
30
10
1461770.358
20
5326469.982
30
14.841
0
VERTEX
70
32
8
30
10
1461672.516
20
5326531.605
30
14.841
0
VERTEX
70
32
8
30
10
1461671.592
20
5326532.214
30
14.841
0
VERTEX
70
32
8
30
10
1461672.06
20
5326532.257
30
14.841
0
VERTEX
70
32
8
30
10
1461672.825
20
5326532.397
30
14.841
0
VERTEX
70
32
8
30
10
1461765.406
20
5326549.301
30
14.841
0
VERTEX
70
32
8
30
10
1461737.497
20
5326605.631
30
14.841
0
VERTEX
70
32
8
30
10
1461732.442
20
5326615.607
30
14.841
0
VERTEX
70
32
8
30
10
1461832.206
20
5326598.533
30
14.841
0
VERTEX
70
32
8
30
10
1461915.934
20
5326584.42
30
14.841
0
VERTEX
70
32
8
30
10
1461943.738
20
5326579.364
30
14.841
0
VERTEX
70
32
8
30
10
1461960.484
20
5326580.199
30
14.841
0
VERTEX
70
32
8
30
10
1461929.46
20
5326611.789
30
14.841
0
VERTEX
70
32
8
30
10
1461850.803
20
5326676.371
30
14.841
0
VERTEX
70
32
8
30
10
1461905.98
20
5326667.082
30
14.841
0
VERTEX
70
32
8
30
10
1461952.94
20
5326659.298
30
14.841
0
VERTEX
70
32
8
30
10
1462005.644
20
5326656.255
30
14.841
0
VERTEX
70
32
8
30
10
1462036.755
20
5326657.49
30
14.841
0
VERTEX
70
32
8
30
10
1461984.637
20
5326723.433
30
14.841
0
VERTEX
70
32
8
30
10
1461967.136
20
5326737.926
30
14.841
0
VERTEX
70
32
8
30
10
1461978.848
20
5326737.34
30
14.841
0
VERTEX
70
32
8
30
10
1461984.417
20
5326737.176
30
14.841
0
VERTEX
70
32
8
30
10
1461995.015
20
5326736.863
30
14.841
0
VERTEX
70
32
8
30
10
1462052.865
20
5326746.124
30
14.841
0
VERTEX
70
32
8
30
10
1462065.232
20
5326753.028
30
14.841
0
SEQEND
8
30
0
POLYLINE
70
8
8
31
62
1
66
1
0
VERTEX
70
32
8
31
10
1462055.716
20
5326051.512
30
15.341
0
VERTEX
70
32
8
31
10
1462052.934
20
5326052.692
30
15.341
0
VERTEX
70
32
8
31
10
1462028.031
20
5326063.254
30
15.341
0
VERTEX
70
32
8
31
10
1462023.243
20
5326061.992
30
15.341
0
VERTEX
70
32
8
31
10
1462013.885
20
5326059.524
30
15.341
0
VERTEX
70
32
8
31
10
1461985.053
20
5326072.278
30
15.341
0
VERTEX
70
32
8
31
10
1461963.442
20
5326081.837
30
15.341
0
VERTEX
70
32
8
31
10
1461953.831
20
5326083.823
30
15.341
0
VERTEX
70
32
8
31
10
1461941.931
20
5326086.281
30
15.341
0
VERTEX
70
32
8
31
10
1461899.88
20
5326120.833
30
15.341
0
VERTEX
70
32
8
31
10
1461978.797
20
5326115.967
30
15.341
0
VERTEX
70
32
8
31
10
1462061.986
20
5326131.943
30
15.341
0
VERTEX
70
32
8
31
10
1462103.35
20
5326147.189
30
15.341
0
VERTEX
70
32
8
31
10
1461990.603
20
5326160.246
30
15.341
0
VERTEX
70
32
8
31
10
1461924.176
20
5326201.147
30
15.341
0
VERTEX
70
32
8
31
10
1461841.719
20
5326252.403
30
15.341
0
VERTEX
70
32
8
31
10
1461976.214
20
5326244.43
30
15.341
0
VERTEX
70
32
8
31
10
1462004.598
20
5326242.727
30
15.341
0
VERTEX
70
32
8
31
10
1461907.884
20
5326302.911
30
15.341
0
VERTEX
70
32
8
31
10
1461831.736
20
5326350.759
30
15.341
0
VERTEX
70
32
8
31
10
1461798.426
20
5326366.92
30
15.341
0
VERTEX
70
32
8
31
10
1461739.48
20
5326398.746
30
15.341
0
VERTEX
70
32
8
31
10
1461840.146
20
5326379.52
30
15.341
0
VERTEX
70
32
8
31
10
1461941.2
20
5326373.983
30
15.341
0
VERTEX
70
32
8
31
10
1461892.904
20
5326404.363
30
15.341
0
VERTEX
70
32
8
31
10
1461854.538
20
5326428.737
30
15.341
0
VERTEX
70
32
8
31
10
1461783.672
20
5326468.23
30
15.341
0
VERTEX
70
32
8
31
10
1461699.009
20
5326521.553
30
15.341
0
VERTEX
70
32
8
31
10
1461713.775
20
5326526.574
30
15.341
0
VERTEX
70
32
8
31
10
1461788.639
20
5326540.243
30
15.341
0
VERTEX
70
32
8
31
10
1461766.537
20
5326584.852
30
15.341
0
VERTEX
70
32
8
31
10
1461755.511
20
5326606.613
30
15.341
0
VERTEX
70
32
8
31
10
1461841.475
20
5326591.901
30
15.341
0
VERTEX
70
32
8
31
10
1461913.621
20
5326579.74
30
15.341
0
VERTEX
70
32
8
31
10
1461953.267
20
5326572.531
30
15.341
0
VERTEX
70
32
8
31
10
1461977.147
20
5326573.721
30
15.341
0
VERTEX
70
32
8
31
10
1461932.909
20
5326618.767
30
15.341
0
VERTEX
70
32
8
31
10
1461873.552
20
5326667.502
30
15.341
0
VERTEX
70
32
8
31
10
1461915.19
20
5326660.492
30
15.341
0
VERTEX
70
32
8
31
10
1461950.627
20
5326654.618
30
15.341
0
VERTEX
70
32
8
31
10
1462012.91
20
5326651.022
30
15.341
0
VERTEX
70
32
8
31
10
1462049.677
20
5326652.481
30
15.341
0
VERTEX
70
32
8
31
10
1461989.451
20
5326728.683
30
15.341
0
VERTEX
70
32
8
31
10
1461988.724
20
5326729.512
30
15.341
0
VERTEX
70
32
8
31
10
1462059.878
20
5326740.902
30
15.341
0
VERTEX
70
32
8
31
10
1462075.415
20
5326749.575
30
15.341
0
SEQEND
8
31
0
POLYLINE
70
8
8
32
62
1
66
1
0
VERTEX
70
32
8
32
10
1462086.737
20
5326051.746
30
15.841
0
VERTEX
70
32
8
32
10
1462073.241
20
5326055.158
30
15.841
0
VERTEX
70
32
8
32
10
1462037.774
20
5326062.325
30
15.841
0
VERTEX
70
32
8
32
10
1462022.902
20
5326068.633
30
15.841
0
VERTEX
70
32
8
32
10
1462007.379
20
5326075.217
30
15.841
0
VERTEX
70
32
8
32
10
1462004.395
20
5326074.43
30
15.841
0
VERTEX
70
32
8
32
10
1461998.562
20
5326072.892
30
15.841
0
VERTEX
70
32
8
32
10
1461980.592
20
5326080.841
30
15.841
0
VERTEX
70
32
8
32
10
1461967.122
20
5326086.799
30
15.841
0
VERTEX
70
32
8
32
10
1461961.131
20
5326088.037
30
15.841
0
VERTEX
70
32
8
32
10
1461953.713
20
5326089.569
30
15.841
0
VERTEX
70
32
8
32
10
1461927.503
20
5326111.105
30
15.841
0
VERTEX
70
32
8
32
10
1461976.692
20
5326108.072
30
15.841
0
VERTEX
70
32
8
32
10
1462083.897
20
5326128.661
30
15.841
0
VERTEX
70
32
8
32
10
1462137.203
20
5326148.307
30
15.841
0
VERTEX
70
32
8
32
10
1461991.907
20
5326165.134
30
15.841
0
VERTEX
70
32
8
32
10
1461935.83
20
5326199.662
30
15.841
0
VERTEX
70
32
8
32
10
1461866.222
20
5326242.931
30
15.841
0
VERTEX
70
32
8
32
10
1462010.371
20
5326234.386
30
15.841
0
VERTEX
70
32
8
32
10
1462024.334
20
5326237.45
30
15.841
0
VERTEX
70
32
8
32
10
1462034.391
20
5326239.256
30
15.841
0
VERTEX
70
32
8
32
10
1462037.703
20
5326239.851
30
15.841
0
VERTEX
70
32
8
32
10
1462012.761
20
5326243.347
30
15.841
0
VERTEX
70
32
8
32
10
1461919.361
20
5326301.469
30
15.841
0
VERTEX
70
32
8
32
10
1461833.161
20
5326355.633
30
15.841
0
VERTEX
70
32
8
32
10
1461814.525
20
5326364.674
30
15.841
0
VERTEX
70
32
8
32
10
1461781.546
20
5326382.481
30
15.841
0
VERTEX
70
32
8
32
10
1461837.867
20
5326371.724
30
15.841
0
VERTEX
70
32
8
32
10
1461964.934
20
5326364.762
30
15.841
0
VERTEX
70
32
8
32
10
1461904.206
20
5326402.962
30
15.841
0
VERTEX
70
32
8
32
10
1461855.963
20
5326433.61
30
15.841
0
VERTEX
70
32
8
32
10
1461796.986
20
5326466.478
30
15.841
0
VERTEX
70
32
8
32
10
1461726.527
20
5326510.855
30
15.841
0
VERTEX
70
32
8
32
10
1461756.678
20
5326521.107
30
15.841
0
VERTEX
70
32
8
32
10
1461811.872
20
5326531.185
30
15.841
0
VERTEX
70
32
8
32
10
1461795.577
20
5326564.073
30
15.841
0
VERTEX
70
32
8
32
10
1461778.581
20
5326597.619
30
15.841
0
VERTEX
70
32
8
32
10
1461850.744
20
5326585.268
30
15.841
0
VERTEX
70
32
8
32
10
1461911.308
20
5326575.06
30
15.841
0
VERTEX
70
32
8
32
10
1461962.797
20
5326565.698
30
15.841
0
VERTEX
70
32
8
32
10
1461993.809
20
5326567.244
30
15.841
0
VERTEX
70
32
8
32
10
1461936.357
20
5326625.745
30
15.841
0
VERTEX
70
32
8
32
10
1461896.302
20
5326658.632
30
15.841
0
VERTEX
70
32
8
32
10
1461924.4
20
5326653.902
30
15.841
0
VERTEX
70
32
8
32
10
1461948.314
20
5326649.938
30
15.841
0
VERTEX
70
32
8
32
10
1462020.177
20
5326645.789
30
15.841
0
VERTEX
70
32
8
32
10
1462062.599
20
5326647.472
30
15.841
0
VERTEX
70
32
8
32
10
1462010.315
20
5326713.626
30
15.841
0
VERTEX
70
32
8
32
10
1462000.321
20
5326725.024
30
15.841
0
VERTEX
70
32
8
32
10
1462066.891
20
5326735.68
30
15.841
0
VERTEX
70
32
8
32
10
1462085.598
20
5326746.122
30
15.841
0
SEQEND
8
32
0
POLYLINE
70
8
8
32
62
1
66
1
0
VERTEX
70
32
8
32
10
1462037.703
20
5326239.851
30
15.841
0
VERTEX
70
32
8
32
10
1462037.703
20
5326239.851
30
15.841
0
SEQEND
8
32
0
POLYLINE
70
8
8
33
62
1
66
1
0
VERTEX
70
32
8
33
10
1462133.918
20
5326052.873
30
16.341
0
VERTEX
70
32
8
33
10
1462096.662
20
5326062.292
30
16.341
0
VERTEX
70
32
8
33
10
1461998.753
20
5326082.079
30
16.341
0
VERTEX
70
32
8
33
10
1461992.869
20
5326084.574
30
16.341
0
VERTEX
70
32
8
33
10
1461986.728
20
5326087.179
30
16.341
0
VERTEX
70
32
8
33
10
1461985.547
20
5326086.868
30
16.341
0
VERTEX
70
32
8
33
10
1461983.239
20
5326086.259
30
16.341
0
VERTEX
70
32
8
33
10
1461976.13
20
5326089.404
30
16.341
0
VERTEX
70
32
8
33
10
1461970.801
20
5326091.761
30
16.341
0
VERTEX
70
32
8
33
10
1461968.43
20
5326092.251
30
16.341
0
VERTEX
70
32
8
33
10
1461965.496
20
5326092.857
30
16.341
0
VERTEX
70
32
8
33
10
1461955.126
20
5326101.378
30
16.341
0
VERTEX
70
32
8
33
10
1461974.587
20
5326100.178
30
16.341
0
VERTEX
70
32
8
33
10
1462105.808
20
5326125.378
30
16.341
0
VERTEX
70
32
8
33
10
1462171.055
20
5326149.426
30
16.341
0
VERTEX
70
32
8
33
10
1461993.21
20
5326170.023
30
16.341
0
VERTEX
70
32
8
33
10
1461947.484
20
5326198.177
30
16.341
0
VERTEX
70
32
8
33
10
1461890.725
20
5326233.459
30
16.341
0
VERTEX
70
32
8
33
10
1462008.266
20
5326226.492
30
16.341
0
VERTEX
70
32
8
33
10
1462042.146
20
5326233.925
30
16.341
0
VERTEX
70
32
8
33
10
1462066.551
20
5326238.309
30
16.341
0
VERTEX
70
32
8
33
10
1462074.587
20
5326239.753
30
16.341
0
VERTEX
70
32
8
33
10
1462014.064
20
5326248.236
30
16.341
0
VERTEX
70
32
8
33
10
1461930.838
20
5326300.026
30
16.341
0
VERTEX
70
32
8
33
10
1461834.586
20
5326360.506
30
16.341
0
VERTEX
70
32
8
33
10
1461830.624
20
5326362.429
30
16.341
0
VERTEX
70
32
8
33
10
1461823.612
20
5326366.215
30
16.341
0
VERTEX
70
32
8
33
10
1461835.587
20
5326363.928
30
16.341
0
VERTEX
70
32
8
33
10
1461988.668
20
5326355.541
30
16.341
0
VERTEX
70
32
8
33
10
1461915.507
20
5326401.561
30
16.341
0
VERTEX
70
32
8
33
10
1461857.388
20
5326438.484
30
16.341
0
VERTEX
70
32
8
33
10
1461810.3
20
5326464.726
30
16.341
0
VERTEX
70
32
8
33
10
1461754.044
20
5326500.157
30
16.341
0
VERTEX
70
32
8
33
10
1461799.581
20
5326515.641
30
16.341
0
VERTEX
70
32
8
33
10
1461835.105
20
5326522.127
30
16.341
0
VERTEX
70
32
8
33
10
1461824.617
20
5326543.295
30
16.341
0
VERTEX
70
32
8
33
10
1461801.65
20
5326588.625
30
16.341
0
VERTEX
70
32
8
33
10
1461860.013
20
5326578.636
30
16.341
0
VERTEX
70
32
8
33
10
1461908.995
20
5326570.38
30
16.341
0
VERTEX
70
32
8
33
10
1461972.327
20
5326558.865
30
16.341
0
VERTEX
70
32
8
33
10
1462010.472
20
5326560.766
30
16.341
0
VERTEX
70
32
8
33
10
1461939.806
20
5326632.722
30
16.341
0
VERTEX
70
32
8
33
10
1461919.051
20
5326649.763
30
16.341
0
VERTEX
70
32
8
33
10
1461933.61
20
5326647.312
30
16.341
0
VERTEX
70
32
8
33
10
1461946.001
20
5326645.258
30
16.341
0
VERTEX
70
32
8
33
10
1462027.444
20
5326640.556
30
16.341
0
VERTEX
70
32
8
33
10
1462075.521
20
5326642.464
30
16.341
0
VERTEX
70
32
8
33
10
1462031.179
20
5326698.568
30
16.341
0
VERTEX
70
32
8
33
10
1462011.918
20
5326720.535
30
16.341
0
VERTEX
70
32
8
33
10
1462073.904
20
5326730.457
30
16.341
0
VERTEX
70
32
8
33
10
1462091.651
20
5326740.364
30
16.341
0
VERTEX
70
32
8
33
10
1462095.78
20
5326742.669
30
16.341
0
SEQEND
8
33
0
POLYLINE
70
8
8
33
62
1
66
1
0
VERTEX
70
32
8
33
10
1462074.587
20
5326239.753
30
16.341
0
VERTEX
70
32
8
33
10
1462074.587
20
5326239.753
30
16.341
0
SEQEND
8
33
0
POLYLINE
70
8
8
34
62
1
66
1
0
VERTEX
70
32
8
34
10
1462181.099
20
5326054
30
16.841
0
VERTEX
70
32
8
34
10
1462157.479
20
5326059.972
30
16.841
0
VERTEX
70
32
8
34
10
1462120.083
20
5326069.427
30
16.841
0
VERTEX
70
32
8
34
10
1461990.173
20
5326095.681
30
16.841
0
VERTEX
70
32
8
34
10
1462127.719
20
5326122.096
30
16.841
0
VERTEX
70
32
8
34
10
1462204.907
20
5326150.545
30
16.841
0
VERTEX
70
32
8
34
10
1461994.513
20
5326174.911
30
16.841
0
VERTEX
70
32
8
34
10
1461959.139
20
5326196.692
30
16.841
0
VERTEX
70
32
8
34
10
1461915.228
20
5326223.987
30
16.841
0
VERTEX
70
32
8
34
10
1462006.161
20
5326218.597
30
16.841
0
VERTEX
70
32
8
34
10
1462059.959
20
5326230.4
30
16.841
0
VERTEX
70
32
8
34
10
1462098.71
20
5326237.362
30
16.841
0
VERTEX
70
32
8
34
10
1462111.471
20
5326239.654
30
16.841
0
VERTEX
70
32
8
34
10
1462015.367
20
5326253.124
30
16.841
0
VERTEX
70
32
8
34
10
1461942.315
20
5326298.583
30
16.841
0
VERTEX
70
32
8
34
10
1461852.482
20
5326355.031
30
16.841
0
VERTEX
70
32
8
34
10
1461917.519
20
5326351.518
30
16.841
0
VERTEX
70
32
8
34
10
1462012.403
20
5326346.32
30
16.841
0
VERTEX
70
32
8
34
10
1461926.809
20
5326400.161
30
16.841
0
VERTEX
70
32
8
34
10
1461858.813
20
5326443.358
30
16.841
0
VERTEX
70
32
8
34
10
1461823.614
20
5326462.974
30
16.841
0
VERTEX
70
32
8
34
10
1461781.562
20
5326489.459
30
16.841
0
VERTEX
70
32
8
34
10
1461842.484
20
5326510.175
30
16.841
0
VERTEX
70
32
8
34
10
1461858.338
20
5326513.069
30
16.841
0
VERTEX
70
32
8
34
10
1461853.657
20
5326522.516
30
16.841
0
VERTEX
70
32
8
34
10
1461824.72
20
5326579.631
30
16.841
0
VERTEX
70
32
8
34
10
1461869.282
20
5326572.004
30
16.841
0
VERTEX
70
32
8
34
10
1461906.682
20
5326565.7
30
16.841
0
VERTEX
70
32
8
34
10
1461981.857
20
5326552.031
30
16.841
0
VERTEX
70
32
8
34
10
1462027.135
20
5326554.288
30
16.841
0
VERTEX
70
32
8
34
10
1461943.254
20
5326639.7
30
16.841
0
VERTEX
70
32
8
34
10
1461941.8
20
5326640.894
30
16.841
0
VERTEX
70
32
8
34
10
1461942.82
20
5326640.722
30
16.841
0
VERTEX
70
32
8
34
10
1461943.688
20
5326640.578
30
16.841
0
VERTEX
70
32
8
34
10
1462034.711
20
5326635.323
30
16.841
0
VERTEX
70
32
8
34
10
1462088.443
20
5326637.455
30
16.841
0
VERTEX
70
32
8
34
10
1462052.043
20
5326683.511
30
16.841
0
VERTEX
70
32
8
34
10
1462023.515
20
5326716.047
30
16.841
0
VERTEX
70
32
8
34
10
1462080.918
20
5326725.235
30
16.841
0
VERTEX
70
32
8
34
10
1462097.351
20
5326734.409
30
16.841
0
VERTEX
70
32
8
34
10
1462105.963
20
5326739.217
30
16.841
0
SEQEND
8
34
0
POLYLINE
70
8
8
34
62
1
66
1
0
VERTEX
70
32
8
34
10
1462111.471
20
5326239.654
30
16.841
0
VERTEX
70
32
8
34
10
1462111.471
20
5326239.654
30
16.841
0
SEQEND
8
34
0
POLYLINE
70
8
8
35
62
1
66
1
0
VERTEX
70
32
8
35
10
1462235.638
20
5326152.001
30
17.341
0
VERTEX
70
32
8
35
10
1462227.947
20
5326152.913
30
17.341
0
VERTEX
70
32
8
35
10
1462227.043
20
5326153.021
30
17.341
0
VERTEX
70
32
8
35
10
1461995.817
20
5326179.799
30
17.341
0
VERTEX
70
32
8
35
10
1461970.793
20
5326195.207
30
17.341
0
VERTEX
70
32
8
35
10
1461939.731
20
5326214.515
30
17.341
0
VERTEX
70
32
8
35
10
1462004.056
20
5326210.703
30
17.341
0
VERTEX
70
32
8
35
10
1462077.772
20
5326226.875
30
17.341
0
VERTEX
70
32
8
35
10
1462130.869
20
5326236.414
30
17.341
0
VERTEX
70
32
8
35
10
1462148.355
20
5326239.556
30
17.341
0
VERTEX
70
32
8
35
10
1462016.671
20
5326258.012
30
17.341
0
VERTEX
70
32
8
35
10
1461953.792
20
5326297.141
30
17.341
0
VERTEX
70
32
8
35
10
1461876.47
20
5326345.727
30
17.341
0
VERTEX
70
32
8
35
10
1462030.606
20
5326337.402
30
17.341
0
VERTEX
70
32
8
35
10
1462036.137
20
5326337.099
30
17.341
0
VERTEX
70
32
8
35
10
1461938.11
20
5326398.76
30
17.341
0
VERTEX
70
32
8
35
10
1461860.238
20
5326448.231
30
17.341
0
VERTEX
70
32
8
35
10
1461836.928
20
5326461.222
30
17.341
0
VERTEX
70
32
8
35
10
1461809.08
20
5326478.762
30
17.341
0
VERTEX
70
32
8
35
10
1461875.799
20
5326501.448
30
17.341
0
VERTEX
70
32
8
35
10
1461881.571
20
5326504.012
30
17.341
0
VERTEX
70
32
8
35
10
1461878.837
20
5326509.358
30
17.341
0
VERTEX
70
32
8
35
10
1461847.789
20
5326570.637
30
17.341
0
VERTEX
70
32
8
35
10
1461878.551
20
5326565.372
30
17.341
0
VERTEX
70
32
8
35
10
1461904.369
20
5326561.02
30
17.341
0
VERTEX
70
32
8
35
10
1461991.387
20
5326545.198
30
17.341
0
VERTEX
70
32
8
35
10
1462043.797
20
5326547.811
30
17.341
0
VERTEX
70
32
8
35
10
1461975.877
20
5326616.971
30
17.341
0
VERTEX
70
32
8
35
10
1461956.983
20
5326634.997
30
17.341
0
VERTEX
70
32
8
35
10
1462041.978
20
5326630.09
30
17.341
0
VERTEX
70
32
8
35
10
1462101.365
20
5326632.447
30
17.341
0
VERTEX
70
32
8
35
10
1462072.907
20
5326668.453
30
17.341
0
VERTEX
70
32
8
35
10
1462035.112
20
5326711.559
30
17.341
0
VERTEX
70
32
8
35
10
1462087.931
20
5326720.013
30
17.341
0
VERTEX
70
32
8
35
10
1462103.052
20
5326728.455
30
17.341
0
VERTEX
70
32
8
35
10
1462116.145
20
5326735.764
30
17.341
0
SEQEND
8
35
0
POLYLINE
70
8
8
35
62
1
66
1
0
VERTEX
70
32
8
35
10
1462192.775
20
5326054.506
30
17.341
0
VERTEX
70
32
8
35
10
1462195.864
20
5326063.323
30
17.341
0
VERTEX
70
32
8
35
10
1462173.504
20
5326068.977
30
17.341
0
VERTEX
70
32
8
35
10
1462143.504
20
5326076.562
30
17.341
0
VERTEX
70
32
8
35
10
1462039.288
20
5326097.623
30
17.341
0
VERTEX
70
32
8
35
10
1462149.629
20
5326118.814
30
17.341
0
VERTEX
70
32
8
35
10
1462235.728
20
5326150.546
30
17.341
0
SEQEND
8
35
0
POLYLINE
70
8
8
35
62
1
66
1
0
VERTEX
70
32
8
35
10
1462148.355
20
5326239.556
30
17.341
0
VERTEX
70
32
8
35
10
1462148.355
20
5326239.556
30
17.341
0
SEQEND
8
35
0
POLYLINE
70
8
8
35
62
1
66
1
0
VERTEX
70
32
8
35
10
1462077.772
20
5326226.875
30
17.341
0
VERTEX
70
32
8
35
10
1462077.772
20
5326226.875
30
17.341
0
SEQEND
8
35
0
POLYLINE
70
8
8
36
62
1
66
1
0
VERTEX
70
32
8
36
10
1462235.343
20
5326156.808
30
17.841
0
VERTEX
70
32
8
36
10
1462133.23
20
5326168.923
30
17.841
0
VERTEX
70
32
8
36
10
1462132.701
20
5326168.986
30
17.841
0
VERTEX
70
32
8
36
10
1461997.12
20
5326184.688
30
17.841
0
VERTEX
70
32
8
36
10
1461982.447
20
5326193.722
30
17.841
0
VERTEX
70
32
8
36
10
1461964.234
20
5326205.044
30
17.841
0
VERTEX
70
32
8
36
10
1462001.952
20
5326202.808
30
17.841
0
VERTEX
70
32
8
36
10
1462095.584
20
5326223.35
30
17.841
0
VERTEX
70
32
8
36
10
1462163.029
20
5326235.467
30
17.841
0
VERTEX
70
32
8
36
10
1462185.238
20
5326239.457
30
17.841
0
VERTEX
70
32
8
36
10
1462017.974
20
5326262.901
30
17.841
0
VERTEX
70
32
8
36
10
1461965.269
20
5326295.698
30
17.841
0
VERTEX
70
32
8
36
10
1461900.458
20
5326336.423
30
17.841
0
VERTEX
70
32
8
36
10
1462035.631
20
5326329.122
30
17.841
0
VERTEX
70
32
8
36
10
1462043.752
20
5326333.655
30
17.841
0
VERTEX
70
32
8
36
10
1462048.242
20
5326337.171
30
17.841
0
VERTEX
70
32
8
36
10
1462038.828
20
5326341.114
30
17.841
0
VERTEX
70
32
8
36
10
1461949.412
20
5326397.359
30
17.841
0
VERTEX
70
32
8
36
10
1461861.663
20
5326453.105
30
17.841
0
VERTEX
70
32
8
36
10
1461850.242
20
5326459.47
30
17.841
0
VERTEX
70
32
8
36
10
1461836.597
20
5326468.064
30
17.841
0
VERTEX
70
32
8
36
10
1461869.288
20
5326479.18
30
17.841
0
VERTEX
70
32
8
36
10
1461904.804
20
5326494.954
30
17.841
0
VERTEX
70
32
8
36
10
1461887.978
20
5326527.854
30
17.841
0
VERTEX
70
32
8
36
10
1461870.859
20
5326561.643
30
17.841
0
VERTEX
70
32
8
36
10
1461887.821
20
5326558.74
30
17.841
0
VERTEX
70
32
8
36
10
1461902.056
20
5326556.34
30
17.841
0
VERTEX
70
32
8
36
10
1462000.917
20
5326538.365
30
17.841
0
VERTEX
70
32
8
36
10
1462060.46
20
5326541.333
30
17.841
0
VERTEX
70
32
8
36
10
1462010.877
20
5326591.821
30
17.841
0
VERTEX
70
32
8
36
10
1461971.55
20
5326629.343
30
17.841
0
VERTEX
70
32
8
36
10
1462049.245
20
5326624.857
30
17.841
0
VERTEX
70
32
8
36
10
1462114.287
20
5326627.438
30
17.841
0
VERTEX
70
32
8
36
10
1462093.771
20
5326653.395
30
17.841
0
VERTEX
70
32
8
36
10
1462046.709
20
5326707.07
30
17.841
0
VERTEX
70
32
8
36
10
1462094.944
20
5326714.791
30
17.841
0
VERTEX
70
32
8
36
10
1462108.753
20
5326722.5
30
17.841
0
VERTEX
70
32
8
36
10
1462126.328
20
5326732.311
30
17.841
0
SEQEND
8
36
0
POLYLINE
70
8
8
36
62
1
66
1
0
VERTEX
70
32
8
36
10
1462199.793
20
5326054.929
30
17.841
0
VERTEX
70
32
8
36
10
1462206.376
20
5326073.722
30
17.841
0
VERTEX
70
32
8
36
10
1462189.529
20
5326077.982
30
17.841
0
VERTEX
70
32
8
36
10
1462166.925
20
5326083.696
30
17.841
0
VERTEX
70
32
8
36
10
1462088.403
20
5326099.565
30
17.841
0
VERTEX
70
32
8
36
10
1462171.54
20
5326115.531
30
17.841
0
VERTEX
70
32
8
36
10
1462236.411
20
5326139.44
30
17.841
0
SEQEND
8
36
0
POLYLINE
70
8
8
36
62
1
66
1
0
VERTEX
70
32
8
36
10
1462185.238
20
5326239.457
30
17.841
0
VERTEX
70
32
8
36
10
1462185.238
20
5326239.457
30
17.841
0
SEQEND
8
36
0
POLYLINE
70
8
8
36
62
1
66
1
0
VERTEX
70
32
8
36
10
1462048.242
20
5326337.171
30
17.841
0
VERTEX
70
32
8
36
10
1462048.242
20
5326337.171
30
17.841
0
SEQEND
8
36
0
POLYLINE
70
8
8
37
62
1
66
1
0
VERTEX
70
32
8
37
10
1462235.047
20
5326161.616
30
18.341
0
VERTEX
70
32
8
37
10
1462038.514
20
5326184.933
30
18.341
0
VERTEX
70
32
8
37
10
1462038.358
20
5326184.951
30
18.341
0
VERTEX
70
32
8
37
10
1461998.423
20
5326189.576
30
18.341
0
VERTEX
70
32
8
37
10
1461994.102
20
5326192.237
30
18.341
0
VERTEX
70
32
8
37
10
1461988.737
20
5326195.572
30
18.341
0
VERTEX
70
32
8
37
10
1461999.847
20
5326194.913
30
18.341
0
VERTEX
70
32
8
37
10
1462113.397
20
5326219.825
30
18.341
0
VERTEX
70
32
8
37
10
1462195.188
20
5326234.519
30
18.341
0
VERTEX
70
32
8
37
10
1462222.122
20
5326239.358
30
18.341
0
VERTEX
70
32
8
37
10
1462019.278
20
5326267.789
30
18.341
0
VERTEX
70
32
8
37
10
1461976.747
20
5326294.255
30
18.341
0
VERTEX
70
32
8
37
10
1461924.446
20
5326327.119
30
18.341
0
VERTEX
70
32
8
37
10
1462033.526
20
5326321.227
30
18.341
0
VERTEX
70
32
8
37
10
1462050.303
20
5326330.593
30
18.341
0
VERTEX
70
32
8
37
10
1462059.579
20
5326337.857
30
18.341
0
VERTEX
70
32
8
37
10
1462040.132
20
5326346.002
30
18.341
0
VERTEX
70
32
8
37
10
1461960.713
20
5326395.958
30
18.341
0
VERTEX
70
32
8
37
10
1461863.956
20
5326457.427
30
18.341
0
VERTEX
70
32
8
37
10
1461864.376
20
5326457.621
30
18.341
0
VERTEX
70
32
8
37
10
1461928.037
20
5326485.896
30
18.341
0
VERTEX
70
32
8
37
10
1461897.119
20
5326546.351
30
18.341
0
VERTEX
70
32
8
37
10
1461893.928
20
5326552.648
30
18.341
0
VERTEX
70
32
8
37
10
1461897.09
20
5326552.107
30
18.341
0
VERTEX
70
32
8
37
10
1461899.743
20
5326551.66
30
18.341
0
VERTEX
70
32
8
37
10
1462010.446
20
5326531.532
30
18.341
0
VERTEX
70
32
8
37
10
1462077.122
20
5326534.855
30
18.341
0
VERTEX
70
32
8
37
10
1462045.877
20
5326566.672
30
18.341
0
VERTEX
70
32
8
37
10
1461986.116
20
5326623.688
30
18.341
0
VERTEX
70
32
8
37
10
1462056.512
20
5326619.624
30
18.341
0
VERTEX
70
32
8
37
10
1462127.209
20
5326622.429
30
18.341
0
VERTEX
70
32
8
37
10
1462114.635
20
5326638.338
30
18.341
0
VERTEX
70
32
8
37
10
1462058.306
20
5326702.582
30
18.341
0
VERTEX
70
32
8
37
10
1462101.957
20
5326709.569
30
18.341
0
VERTEX
70
32
8
37
10
1462114.454
20
5326716.546
30
18.341
0
VERTEX
70
32
8
37
10
1462136.511
20
5326728.859
30
18.341
0
SEQEND
8
37
0
POLYLINE
70
8
8
37
62
1
66
1
0
VERTEX
70
32
8
37
10
1462206.81
20
5326055.353
30
18.341
0
VERTEX
70
32
8
37
10
1462211.225
20
5326067.956
30
18.341
0
VERTEX
70
32
8
37
10
1462216.888
20
5326084.121
30
18.341
0
VERTEX
70
32
8
37
10
1462205.553
20
5326086.986
30
18.341
0
VERTEX
70
32
8
37
10
1462190.346
20
5326090.831
30
18.341
0
VERTEX
70
32
8
37
10
1462137.519
20
5326101.507
30
18.341
0
VERTEX
70
32
8
37
10
1462193.451
20
5326112.249
30
18.341
0
VERTEX
70
32
8
37
10
1462237.095
20
5326128.334
30
18.341
0
SEQEND
8
37
0
POLYLINE
70
8
8
37
62
1
66
1
0
VERTEX
70
32
8
37
10
1462222.122
20
5326239.358
30
18.341
0
VERTEX
70
32
8
37
10
1462222.122
20
5326239.358
30
18.341
0
SEQEND
8
37
0
POLYLINE
70
8
8
37
62
1
66
1
0
VERTEX
70
32
8
37
10
1462059.579
20
5326337.857
30
18.341
0
VERTEX
70
32
8
37
10
1462059.579
20
5326337.857
30
18.341
0
SEQEND
8
37
0
POLYLINE
70
8
8
38
62
1
66
1
0
VERTEX
70
32
8
38
10
1462231.876
20
5326241.348
30
18.841
0
VERTEX
70
32
8
38
10
1462193.114
20
5326248.495
30
18.841
0
VERTEX
70
32
8
38
10
1462020.581
20
5326272.677
30
18.841
0
VERTEX
70
32
8
38
10
1461988.224
20
5326292.813
30
18.841
0
VERTEX
70
32
8
38
10
1461948.434
20
5326317.815
30
18.841
0
VERTEX
70
32
8
38
10
1462031.421
20
5326313.333
30
18.841
0
VERTEX
70
32
8
38
10
1462056.855
20
5326327.531
30
18.841
0
VERTEX
70
32
8
38
10
1462070.917
20
5326338.543
30
18.841
0
VERTEX
70
32
8
38
10
1462041.435
20
5326350.89
30
18.841
0
VERTEX
70
32
8
38
10
1461972.015
20
5326394.558
30
18.841
0
VERTEX
70
32
8
38
10
1461887.439
20
5326448.288
30
18.841
0
VERTEX
70
32
8
38
10
1461898.538
20
5326453.418
30
18.841
0
VERTEX
70
32
8
38
10
1461951.27
20
5326476.838
30
18.841
0
VERTEX
70
32
8
38
10
1461921.828
20
5326534.407
30
18.841
0
VERTEX
70
32
8
38
10
1461918.163
20
5326543.211
30
18.841
0
VERTEX
70
32
8
38
10
1462019.976
20
5326524.699
30
18.841
0
VERTEX
70
32
8
38
10
1462093.785
20
5326528.378
30
18.841
0
VERTEX
70
32
8
38
10
1462080.877
20
5326541.522
30
18.841
0
VERTEX
70
32
8
38
10
1462000.683
20
5326618.034
30
18.841
0
VERTEX
70
32
8
38
10
1462063.779
20
5326614.391
30
18.841
0
VERTEX
70
32
8
38
10
1462140.13
20
5326617.421
30
18.841
0
VERTEX
70
32
8
38
10
1462135.499
20
5326623.28
30
18.841
0
VERTEX
70
32
8
38
10
1462069.903
20
5326698.094
30
18.841
0
VERTEX
70
32
8
38
10
1462108.97
20
5326704.347
30
18.841
0
VERTEX
70
32
8
38
10
1462120.155
20
5326710.591
30
18.841
0
VERTEX
70
32
8
38
10
1462146.693
20
5326725.406
30
18.841
0
SEQEND
8
38
0
POLYLINE
70
8
8
38
62
1
66
1
0
VERTEX
70
32
8
38
10
1462210.257
20
5326055.372
30
18.841
0
VERTEX
70
32
8
38
10
1462221.93
20
5326078.904
30
18.841
0
VERTEX
70
32
8
38
10
1462224.491
20
5326086.217
30
18.841
0
VERTEX
70
32
8
38
10
1462227.4
20
5326094.519
30
18.841
0
VERTEX
70
32
8
38
10
1462221.578
20
5326095.991
30
18.841
0
VERTEX
70
32
8
38
10
1462213.767
20
5326097.966
30
18.841
0
VERTEX
70
32
8
38
10
1462186.634
20
5326103.449
30
18.841
0
VERTEX
70
32
8
38
10
1462215.362
20
5326108.966
30
18.841
0
VERTEX
70
32
8
38
10
1462237.778
20
5326117.228
30
18.841
0
SEQEND
8
38
0
POLYLINE
70
8
8
38
62
1
66
1
0
VERTEX
70
32
8
38
10
1462234.751
20
5326166.423
30
18.841
0
VERTEX
70
32
8
38
10
1462094.874
20
5326183.018
30
18.841
0
VERTEX
70
32
8
38
10
1462020.56
20
5326192.025
30
18.841
0
VERTEX
70
32
8
38
10
1462131.209
20
5326216.3
30
18.841
0
VERTEX
70
32
8
38
10
1462227.347
20
5326233.572
30
18.841
0
VERTEX
70
32
8
38
10
1462232.132
20
5326234.432
30
18.841
0
SEQEND
8
38
0
POLYLINE
70
8
8
38
62
1
66
1
0
VERTEX
70
32
8
38
10
1462070.917
20
5326338.543
30
18.841
0
VERTEX
70
32
8
38
10
1462070.917
20
5326338.543
30
18.841
0
SEQEND
8
38
0
POLYLINE
70
8
8
39
62
1
66
1
0
VERTEX
70
32
8
39
10
1462231.774
20
5326244.096
30
19.341
0
VERTEX
70
32
8
39
10
1462140.169
20
5326260.987
30
19.341
0
VERTEX
70
32
8
39
10
1462021.884
20
5326277.566
30
19.341
0
VERTEX
70
32
8
39
10
1461999.701
20
5326291.37
30
19.341
0
VERTEX
70
32
8
39
10
1461972.422
20
5326308.511
30
19.341
0
VERTEX
70
32
8
39
10
1462029.316
20
5326305.438
30
19.341
0
VERTEX
70
32
8
39
10
1462063.406
20
5326324.469
30
19.341
0
VERTEX
70
32
8
39
10
1462082.254
20
5326339.229
30
19.341
0
VERTEX
70
32
8
39
10
1462042.739
20
5326355.778
30
19.341
0
VERTEX
70
32
8
39
10
1461983.316
20
5326393.157
30
19.341
0
VERTEX
70
32
8
39
10
1461910.921
20
5326439.149
30
19.341
0
VERTEX
70
32
8
39
10
1461932.701
20
5326449.214
30
19.341
0
VERTEX
70
32
8
39
10
1461974.503
20
5326467.78
30
19.341
0
VERTEX
70
32
8
39
10
1461951.163
20
5326513.417
30
19.341
0
VERTEX
70
32
8
39
10
1461942.744
20
5326533.641
30
19.341
0
VERTEX
70
32
8
39
10
1462029.506
20
5326517.865
30
19.341
0
VERTEX
70
32
8
39
10
1462104.485
20
5326521.603
30
19.341
0
VERTEX
70
32
8
39
10
1462108.977
20
5326522.833
30
19.341
0
VERTEX
70
32
8
39
10
1462119.085
20
5326525.187
30
19.341
0
VERTEX
70
32
8
39
10
1462106.301
20
5326525.508
30
19.341
0
VERTEX
70
32
8
39
10
1462015.25
20
5326612.379
30
19.341
0
VERTEX
70
32
8
39
10
1462071.045
20
5326609.158
30
19.341
0
VERTEX
70
32
8
39
10
1462146.575
20
5326612.155
30
19.341
0
VERTEX
70
32
8
39
10
1462149.877
20
5326613.02
30
19.341
0
VERTEX
70
32
8
39
10
1462151.076
20
5326614.804
30
19.341
0
VERTEX
70
32
8
39
10
1462151.35
20
5326615.211
30
19.341
0
VERTEX
70
32
8
39
10
1462148.772
20
5326616.881
30
19.341
0
VERTEX
70
32
8
39
10
1462081.5
20
5326693.606
30
19.341
0
VERTEX
70
32
8
39
10
1462115.983
20
5326699.125
30
19.341
0
VERTEX
70
32
8
39
10
1462125.855
20
5326704.636
30
19.341
0
VERTEX
70
32
8
39
10
1462156.876
20
5326721.953
30
19.341
0
SEQEND
8
39
0
POLYLINE
70
8
8
39
62
1
66
1
0
VERTEX
70
32
8
39
10
1462213.451
20
5326055.362
30
19.341
0
VERTEX
70
32
8
39
10
1462237.621
20
5326104.09
30
19.341
0
VERTEX
70
32
8
39
10
1462237.757
20
5326104.477
30
19.341
0
VERTEX
70
32
8
39
10
1462237.911
20
5326104.918
30
19.341
0
VERTEX
70
32
8
39
10
1462237.603
20
5326104.996
30
19.341
0
VERTEX
70
32
8
39
10
1462237.188
20
5326105.1
30
19.341
0
VERTEX
70
32
8
39
10
1462235.75
20
5326105.391
30
19.341
0
VERTEX
70
32
8
39
10
1462237.273
20
5326105.684
30
19.341
0
VERTEX
70
32
8
39
10
1462238.462
20
5326106.122
30
19.341
0
SEQEND
8
39
0
POLYLINE
70
8
8
39
62
1
66
1
0
VERTEX
70
32
8
39
10
1462234.471
20
5326171.293
30
19.341
0
VERTEX
70
32
8
39
10
1462057.631
20
5326192.725
30
19.341
0
VERTEX
70
32
8
39
10
1462149.022
20
5326212.775
30
19.341
0
VERTEX
70
32
8
39
10
1462232.38
20
5326227.751
30
19.341
0
SEQEND
8
39
0
POLYLINE
70
8
8
39
62
1
66
1
0
VERTEX
70
32
8
39
10
1462082.254
20
5326339.229
30
19.341
0
VERTEX
70
32
8
39
10
1462082.254
20
5326339.229
30
19.341
0
SEQEND
8
39
0
POLYLINE
70
8
8
40
62
1
66
1
0
VERTEX
70
32
8
40
10
1462231.672
20
5326246.844
30
19.841
0
VERTEX
70
32
8
40
10
1462087.225
20
5326273.479
30
19.841
0
VERTEX
70
32
8
40
10
1462023.188
20
5326282.454
30
19.841
0
VERTEX
70
32
8
40
10
1462011.178
20
5326289.927
30
19.841
0
VERTEX
70
32
8
40
10
1461996.41
20
5326299.207
30
19.841
0
VERTEX
70
32
8
40
10
1462027.211
20
5326297.543
30
19.841
0
VERTEX
70
32
8
40
10
1462069.957
20
5326321.407
30
19.841
0
VERTEX
70
32
8
40
10
1462093.592
20
5326339.915
30
19.841
0
VERTEX
70
32
8
40
10
1462044.042
20
5326360.667
30
19.841
0
VERTEX
70
32
8
40
10
1461994.618
20
5326391.756
30
19.841
0
VERTEX
70
32
8
40
10
1461934.403
20
5326430.01
30
19.841
0
VERTEX
70
32
8
40
10
1461966.863
20
5326445.01
30
19.841
0
VERTEX
70
32
8
40
10
1461997.736
20
5326458.722
30
19.841
0
VERTEX
70
32
8
40
10
1461980.498
20
5326492.427
30
19.841
0
VERTEX
70
32
8
40
10
1461967.325
20
5326524.071
30
19.841
0
VERTEX
70
32
8
40
10
1462039.036
20
5326511.032
30
19.841
0
VERTEX
70
32
8
40
10
1462101.008
20
5326514.121
30
19.841
0
VERTEX
70
32
8
40
10
1462120.67
20
5326519.509
30
19.841
0
VERTEX
70
32
8
40
10
1462164.924
20
5326529.812
30
19.841
0
VERTEX
70
32
8
40
10
1462108.955
20
5326531.219
30
19.841
0
VERTEX
70
32
8
40
10
1462029.816
20
5326606.725
30
19.841
0
VERTEX
70
32
8
40
10
1462078.312
20
5326603.925
30
19.841
0
VERTEX
70
32
8
40
10
1462143.961
20
5326606.53
30
19.841
0
VERTEX
70
32
8
40
10
1462155.181
20
5326609.47
30
19.841
0
VERTEX
70
32
8
40
10
1462159.258
20
5326615.533
30
19.841
0
VERTEX
70
32
8
40
10
1462160.188
20
5326616.916
30
19.841
0
VERTEX
70
32
8
40
10
1462151.426
20
5326622.592
30
19.841
0
VERTEX
70
32
8
40
10
1462093.097
20
5326689.117
30
19.841
0
VERTEX
70
32
8
40
10
1462122.996
20
5326693.903
30
19.841
0
VERTEX
70
32
8
40
10
1462131.556
20
5326698.682
30
19.841
0
VERTEX
70
32
8
40
10
1462167.058
20
5326718.5
30
19.841
0
SEQEND
8
40
0
POLYLINE
70
8
8
40
62
1
66
1
0
VERTEX
70
32
8
40
10
1462234.277
20
5326176.509
30
19.841
0
VERTEX
70
32
8
40
10
1462094.701
20
5326193.425
30
19.841
0
VERTEX
70
32
8
40
10
1462166.835
20
5326209.25
30
19.841
0
VERTEX
70
32
8
40
10
1462232.627
20
5326221.07
30
19.841
0
SEQEND
8
40
0
POLYLINE
70
8
8
40
62
1
66
1
0
VERTEX
70
32
8
40
10
1462166.835
20
5326209.25
30
19.841
0
VERTEX
70
32
8
40
10
1462166.835
20
5326209.25
30
19.841
0
SEQEND
8
40
0
POLYLINE
70
8
8
40
62
1
66
1
0
VERTEX
70
32
8
40
10
1462093.592
20
5326339.915
30
19.841
0
VERTEX
70
32
8
40
10
1462093.592
20
5326339.915
30
19.841
0
SEQEND
8
40
0
POLYLINE
70
8
8
40
62
1
66
1
0
VERTEX
70
32
8
40
10
1462216.646
20
5326055.353
30
19.841
0
VERTEX
70
32
8
40
10
1462225.911
20
5326074.032
30
19.841
0
VERTEX
70
32
8
40
10
1462231.007
20
5326084.305
30
19.841
0
VERTEX
70
32
8
40
10
1462232.569
20
5326083.05
30
19.841
0
VERTEX
70
32
8
40
10
1462237.387
20
5326079.183
30
19.841
0
VERTEX
70
32
8
40
10
1462239.153
20
5326077.765
30
19.841
0
SEQEND
8
40
0
POLYLINE
70
8
8
41
62
1
66
1
0
VERTEX
70
32
8
41
10
1462231.571
20
5326249.593
30
20.341
0
VERTEX
70
32
8
41
10
1462034.28
20
5326285.97
30
20.341
0
VERTEX
70
32
8
41
10
1462024.491
20
5326287.342
30
20.341
0
VERTEX
70
32
8
41
10
1462022.655
20
5326288.485
30
20.341
0
VERTEX
70
32
8
41
10
1462020.398
20
5326289.903
30
20.341
0
VERTEX
70
32
8
41
10
1462025.106
20
5326289.649
30
20.341
0
VERTEX
70
32
8
41
10
1462076.509
20
5326318.345
30
20.341
0
VERTEX
70
32
8
41
10
1462096.303
20
5326333.846
30
20.341
0
SEQEND
8
41
0
POLYLINE
70
8
8
41
62
1
66
1
0
VERTEX
70
32
8
41
10
1462096.699
20
5326343.795
30
20.341
0
VERTEX
70
32
8
41
10
1462089.282
20
5326347.154
30
20.341
0
VERTEX
70
32
8
41
10
1462045.345
20
5326365.555
30
20.341
0
VERTEX
70
32
8
41
10
1462005.919
20
5326390.355
30
20.341
0
VERTEX
70
32
8
41
10
1461957.886
20
5326420.871
30
20.341
0
VERTEX
70
32
8
41
10
1462001.025
20
5326440.806
30
20.341
0
VERTEX
70
32
8
41
10
1462020.969
20
5326449.664
30
20.341
0
VERTEX
70
32
8
41
10
1462009.833
20
5326471.437
30
20.341
0
VERTEX
70
32
8
41
10
1461991.907
20
5326514.501
30
20.341
0
VERTEX
70
32
8
41
10
1462048.566
20
5326504.199
30
20.341
0
VERTEX
70
32
8
41
10
1462097.53
20
5326506.64
30
20.341
0
VERTEX
70
32
8
41
10
1462132.364
20
5326516.185
30
20.341
0
VERTEX
70
32
8
41
10
1462202.918
20
5326532.611
30
20.341
0
SEQEND
8
41
0
POLYLINE
70
8
8
41
62
1
66
1
0
VERTEX
70
32
8
41
10
1462202.712
20
5326534.809
30
20.341
0
VERTEX
70
32
8
41
10
1462200.551
20
5326534.694
30
20.341
0
VERTEX
70
32
8
41
10
1462200.551
20
5326534.694
30
20.341
0
VERTEX
70
32
8
41
10
1462111.61
20
5326536.93
30
20.341
0
VERTEX
70
32
8
41
10
1462044.383
20
5326601.07
30
20.341
0
VERTEX
70
32
8
41
10
1462085.579
20
5326598.692
30
20.341
0
VERTEX
70
32
8
41
10
1462141.346
20
5326600.905
30
20.341
0
VERTEX
70
32
8
41
10
1462160.486
20
5326605.92
30
20.341
0
VERTEX
70
32
8
41
10
1462167.44
20
5326616.263
30
20.341
0
VERTEX
70
32
8
41
10
1462169.026
20
5326618.621
30
20.341
0
VERTEX
70
32
8
41
10
1462154.081
20
5326628.303
30
20.341
0
VERTEX
70
32
8
41
10
1462104.694
20
5326684.629
30
20.341
0
VERTEX
70
32
8
41
10
1462130.009
20
5326688.681
30
20.341
0
VERTEX
70
32
8
41
10
1462137.257
20
5326692.727
30
20.341
0
VERTEX
70
32
8
41
10
1462177.241
20
5326715.048
30
20.341
0
SEQEND
8
41
0
POLYLINE
70
8
8
41
62
1
66
1
0
VERTEX
70
32
8
41
10
1462234.084
20
5326181.725
30
20.341
0
VERTEX
70
32
8
41
10
1462131.772
20
5326194.125
30
20.341
0
VERTEX
70
32
8
41
10
1462184.647
20
5326205.725
30
20.341
0
VERTEX
70
32
8
41
10
1462232.874
20
5326214.39
30
20.341
0
SEQEND
8
41
0
POLYLINE
70
8
8
41
62
1
66
1
0
VERTEX
70
32
8
41
10
1462184.647
20
5326205.725
30
20.341
0
VERTEX
70
32
8
41
10
1462184.647
20
5326205.725
30
20.341
0
SEQEND
8
41
0
POLYLINE
70
8
8
41
62
1
66
1
0
VERTEX
70
32
8
41
10
1462219.84
20
5326055.344
30
20.341
0
VERTEX
70
32
8
41
10
1462223.069
20
5326061.852
30
20.341
0
VERTEX
70
32
8
41
10
1462223.42
20
5326061.57
30
20.341
0
VERTEX
70
32
8
41
10
1462227.159
20
5326058.569
30
20.341
0
SEQEND
8
41
0
POLYLINE
70
8
8
42
62
1
66
1
0
VERTEX
70
32
8
42
10
1462096.898
20
5326348.803
30
20.841
0
VERTEX
70
32
8
42
10
1462079.443
20
5326356.709
30
20.841
0
VERTEX
70
32
8
42
10
1462046.649
20
5326370.443
30
20.841
0
VERTEX
70
32
8
42
10
1462017.221
20
5326388.954
30
20.841
0
VERTEX
70
32
8
42
10
1461981.368
20
5326411.731
30
20.841
0
VERTEX
70
32
8
42
10
1462035.187
20
5326436.602
30
20.841
0
VERTEX
70
32
8
42
10
1462044.202
20
5326440.606
30
20.841
0
VERTEX
70
32
8
42
10
1462039.169
20
5326450.448
30
20.841
0
VERTEX
70
32
8
42
10
1462016.488
20
5326504.931
30
20.841
0
VERTEX
70
32
8
42
10
1462058.096
20
5326497.366
30
20.841
0
VERTEX
70
32
8
42
10
1462094.053
20
5326499.158
30
20.841
0
VERTEX
70
32
8
42
10
1462144.058
20
5326512.86
30
20.841
0
VERTEX
70
32
8
42
10
1462203.47
20
5326526.693
30
20.841
0
SEQEND
8
42
0
POLYLINE
70
8
8
42
62
1
66
1
0
VERTEX
70
32
8
42
10
1462202.08
20
5326541.578
30
20.841
0
VERTEX
70
32
8
42
10
1462187.446
20
5326540.801
30
20.841
0
VERTEX
70
32
8
42
10
1462187.446
20
5326540.801
30
20.841
0
VERTEX
70
32
8
42
10
1462114.264
20
5326542.641
30
20.841
0
VERTEX
70
32
8
42
10
1462058.95
20
5326595.416
30
20.841
0
VERTEX
70
32
8
42
10
1462092.846
20
5326593.459
30
20.841
0
VERTEX
70
32
8
42
10
1462138.731
20
5326595.28
30
20.841
0
VERTEX
70
32
8
42
10
1462165.791
20
5326602.37
30
20.841
0
VERTEX
70
32
8
42
10
1462175.622
20
5326616.992
30
20.841
0
VERTEX
70
32
8
42
10
1462177.864
20
5326620.326
30
20.841
0
VERTEX
70
32
8
42
10
1462156.735
20
5326634.013
30
20.841
0
VERTEX
70
32
8
42
10
1462116.291
20
5326680.141
30
20.841
0
VERTEX
70
32
8
42
10
1462137.022
20
5326683.459
30
20.841
0
VERTEX
70
32
8
42
10
1462142.958
20
5326686.772
30
20.841
0
VERTEX
70
32
8
42
10
1462187.423
20
5326711.595
30
20.841
0
SEQEND
8
42
0
POLYLINE
70
8
8
42
62
1
66
1
0
VERTEX
70
32
8
42
10
1462233.891
20
5326186.942
30
20.841
0
VERTEX
70
32
8
42
10
1462168.842
20
5326194.825
30
20.841
0
VERTEX
70
32
8
42
10
1462202.46
20
5326202.2
30
20.841
0
VERTEX
70
32
8
42
10
1462233.122
20
5326207.709
30
20.841
0
SEQEND
8
42
0
POLYLINE
70
8
8
42
62
1
66
1
0
VERTEX
70
32
8
42
10
1462231.288
20
5326253.805
30
20.841
0
VERTEX
70
32
8
42
10
1462055.343
20
5326288.286
30
20.841
0
VERTEX
70
32
8
42
10
1462046.211
20
5326294.711
30
20.841
0
VERTEX
70
32
8
42
10
1462083.06
20
5326315.283
30
20.841
0
VERTEX
70
32
8
42
10
1462095.967
20
5326325.391
30
20.841
0
SEQEND
8
42
0
POLYLINE
70
8
8
43
62
1
66
1
0
VERTEX
70
32
8
43
10
1462097.097
20
5326353.811
30
21.341
0
VERTEX
70
32
8
43
10
1462069.605
20
5326366.264
30
21.341
0
VERTEX
70
32
8
43
10
1462047.952
20
5326375.332
30
21.341
0
VERTEX
70
32
8
43
10
1462028.522
20
5326387.554
30
21.341
0
VERTEX
70
32
8
43
10
1462004.85
20
5326402.592
30
21.341
0
VERTEX
70
32
8
43
10
1462062.299
20
5326429.141
30
21.341
0
VERTEX
70
32
8
43
10
1462065.966
20
5326432.192
30
21.341
0
VERTEX
70
32
8
43
10
1462065.674
20
5326434.298
30
21.341
0
VERTEX
70
32
8
43
10
1462065.268
20
5326437.23
30
21.341
0
VERTEX
70
32
8
43
10
1462041.069
20
5326495.361
30
21.341
0
VERTEX
70
32
8
43
10
1462067.625
20
5326490.533
30
21.341
0
VERTEX
70
32
8
43
10
1462090.575
20
5326491.677
30
21.341
0
VERTEX
70
32
8
43
10
1462155.751
20
5326509.536
30
21.341
0
VERTEX
70
32
8
43
10
1462204.023
20
5326520.775
30
21.341
0
SEQEND
8
43
0
POLYLINE
70
8
8
43
62
1
66
1
0
VERTEX
70
32
8
43
10
1462201.448
20
5326548.347
30
21.341
0
VERTEX
70
32
8
43
10
1462193.842
20
5326547.943
30
21.341
0
VERTEX
70
32
8
43
10
1462174.34
20
5326546.908
30
21.341
0
VERTEX
70
32
8
43
10
1462116.918
20
5326548.351
30
21.341
0
VERTEX
70
32
8
43
10
1462073.516
20
5326589.761
30
21.341
0
VERTEX
70
32
8
43
10
1462100.113
20
5326588.226
30
21.341
0
VERTEX
70
32
8
43
10
1462136.117
20
5326589.654
30
21.341
0
VERTEX
70
32
8
43
10
1462171.095
20
5326598.821
30
21.341
0
VERTEX
70
32
8
43
10
1462183.804
20
5326617.721
30
21.341
0
VERTEX
70
32
8
43
10
1462186.702
20
5326622.031
30
21.341
0
VERTEX
70
32
8
43
10
1462159.39
20
5326639.724
30
21.341
0
VERTEX
70
32
8
43
10
1462127.888
20
5326675.652
30
21.341
0
VERTEX
70
32
8
43
10
1462144.036
20
5326678.237
30
21.341
0
VERTEX
70
32
8
43
10
1462148.658
20
5326680.818
30
21.341
0
VERTEX
70
32
8
43
10
1462197.606
20
5326708.142
30
21.341
0
SEQEND
8
43
0
POLYLINE
70
8
8
43
62
1
66
1
0
VERTEX
70
32
8
43
10
1462233.698
20
5326192.158
30
21.341
0
VERTEX
70
32
8
43
10
1462205.913
20
5326195.525
30
21.341
0
VERTEX
70
32
8
43
10
1462220.272
20
5326198.676
30
21.341
0
VERTEX
70
32
8
43
10
1462233.369
20
5326201.029
30
21.341
0
SEQEND
8
43
0
POLYLINE
70
8
8
43
62
1
66
1
0
VERTEX
70
32
8
43
10
1462230.595
20
5326261.337
30
21.341
0
VERTEX
70
32
8
43
10
1462092.701
20
5326288.361
30
21.341
0
VERTEX
70
32
8
43
10
1462072.426
20
5326302.627
30
21.341
0
VERTEX
70
32
8
43
10
1462089.612
20
5326312.221
30
21.341
0
VERTEX
70
32
8
43
10
1462095.631
20
5326316.935
30
21.341
0
SEQEND
8
43
0
POLYLINE
70
8
8
44
62
1
66
1
0
VERTEX
70
32
8
44
10
1462097.296
20
5326358.819
30
21.841
0
VERTEX
70
32
8
44
10
1462059.766
20
5326375.818
30
21.841
0
VERTEX
70
32
8
44
10
1462049.255
20
5326380.22
30
21.841
0
VERTEX
70
32
8
44
10
1462039.824
20
5326386.153
30
21.841
0
VERTEX
70
32
8
44
10
1462028.333
20
5326393.453
30
21.841
0
VERTEX
70
32
8
44
10
1462056.22
20
5326406.34
30
21.841
0
VERTEX
70
32
8
44
10
1462080.819
20
5326426.806
30
21.841
0
VERTEX
70
32
8
44
10
1462078.856
20
5326440.933
30
21.841
0
VERTEX
70
32
8
44
10
1462076.134
20
5326460.607
30
21.841
0
VERTEX
70
32
8
44
10
1462065.65
20
5326485.791
30
21.841
0
VERTEX
70
32
8
44
10
1462077.155
20
5326483.699
30
21.841
0
VERTEX
70
32
8
44
10
1462087.098
20
5326484.195
30
21.841
0
VERTEX
70
32
8
44
10
1462167.445
20
5326506.212
30
21.841
0
VERTEX
70
32
8
44
10
1462204.576
20
5326514.856
30
21.841
0
SEQEND
8
44
0
POLYLINE
70
8
8
44
62
1
66
1
0
VERTEX
70
32
8
44
10
1462200.816
20
5326555.116
30
21.841
0
VERTEX
70
32
8
44
10
1462175.384
20
5326553.766
30
21.841
0
VERTEX
70
32
8
44
10
1462161.235
20
5326553.015
30
21.841
0
VERTEX
70
32
8
44
10
1462119.573
20
5326554.062
30
21.841
0
VERTEX
70
32
8
44
10
1462088.083
20
5326584.107
30
21.841
0
VERTEX
70
32
8
44
10
1462107.38
20
5326582.993
30
21.841
0
VERTEX
70
32
8
44
10
1462133.502
20
5326584.029
30
21.841
0
VERTEX
70
32
8
44
10
1462176.4
20
5326595.271
30
21.841
0
VERTEX
70
32
8
44
10
1462191.986
20
5326618.45
30
21.841
0
VERTEX
70
32
8
44
10
1462195.541
20
5326623.736
30
21.841
0
VERTEX
70
32
8
44
10
1462162.044
20
5326645.435
30
21.841
0
VERTEX
70
32
8
44
10
1462139.485
20
5326671.164
30
21.841
0
VERTEX
70
32
8
44
10
1462151.049
20
5326673.015
30
21.841
0
VERTEX
70
32
8
44
10
1462154.359
20
5326674.863
30
21.841
0
VERTEX
70
32
8
44
10
1462191.996
20
5326695.873
30
21.841
0
VERTEX
70
32
8
44
10
1462199.5
20
5326700.649
30
21.841
0
SEQEND
8
44
0
POLYLINE
70
8
8
44
62
1
66
1
0
VERTEX
70
32
8
44
10
1462229.903
20
5326268.868
30
21.841
0
VERTEX
70
32
8
44
10
1462130.059
20
5326288.435
30
21.841
0
VERTEX
70
32
8
44
10
1462101.42
20
5326308.587
30
21.841
0
VERTEX
70
32
8
44
10
1462117.5
20
5326308.142
30
21.841
0
VERTEX
70
32
8
44
10
1462189.137
20
5326306.159
30
21.841
0
VERTEX
70
32
8
44
10
1462226.569
20
5326305.123
30
21.841
0
SEQEND
8
44
0
POLYLINE
70
8
8
45
62
1
66
1
0
VERTEX
70
32
8
45
10
1462200.46
20
5326561.118
30
22.341
0
VERTEX
70
32
8
45
10
1462183.26
20
5326560.986
30
22.341
0
VERTEX
70
32
8
45
10
1462156.926
20
5326559.589
30
22.341
0
VERTEX
70
32
8
45
10
1462148.129
20
5326559.122
30
22.341
0
VERTEX
70
32
8
45
10
1462148.129
20
5326559.122
30
22.341
0
VERTEX
70
32
8
45
10
1462122.227
20
5326559.773
30
22.341
0
VERTEX
70
32
8
45
10
1462102.649
20
5326578.452
30
22.341
0
VERTEX
70
32
8
45
10
1462114.647
20
5326577.76
30
22.341
0
VERTEX
70
32
8
45
10
1462130.887
20
5326578.404
30
22.341
0
VERTEX
70
32
8
45
10
1462181.705
20
5326591.721
30
22.341
0
VERTEX
70
32
8
45
10
1462199.594
20
5326618.325
30
22.341
0
SEQEND
8
45
0
POLYLINE
70
8
8
45
62
1
66
1
0
VERTEX
70
32
8
45
10
1462199.5
20
5326631.87
30
22.341
0
VERTEX
70
32
8
45
10
1462191.316
20
5326633.903
30
22.341
0
VERTEX
70
32
8
45
10
1462164.699
20
5326651.146
30
22.341
0
VERTEX
70
32
8
45
10
1462151.082
20
5326666.676
30
22.341
0
VERTEX
70
32
8
45
10
1462158.062
20
5326667.793
30
22.341
0
VERTEX
70
32
8
45
10
1462160.06
20
5326668.908
30
22.341
0
VERTEX
70
32
8
45
10
1462182.777
20
5326681.59
30
22.341
0
VERTEX
70
32
8
45
10
1462188.475
20
5326685.217
30
22.341
0
VERTEX
70
32
8
45
10
1462199.5
20
5326692.233
30
22.341
0
SEQEND
8
45
0
POLYLINE
70
8
8
45
62
1
66
1
0
VERTEX
70
32
8
45
10
1462229.21
20
5326276.4
30
22.341
0
VERTEX
70
32
8
45
10
1462167.416
20
5326288.51
30
22.341
0
VERTEX
70
32
8
45
10
1462149.692
20
5326300.982
30
22.341
0
VERTEX
70
32
8
45
10
1462159.644
20
5326300.707
30
22.341
0
VERTEX
70
32
8
45
10
1462227.147
20
5326298.838
30
22.341
0
SEQEND
8
45
0
POLYLINE
70
8
8
45
62
1
66
1
0
VERTEX
70
32
8
45
10
1462097.495
20
5326363.827
30
22.341
0
VERTEX
70
32
8
45
10
1462051.186
20
5326384.803
30
22.341
0
VERTEX
70
32
8
45
10
1462051.842
20
5326385.316
30
22.341
0
VERTEX
70
32
8
45
10
1462058.949
20
5326390.868
30
22.341
0
VERTEX
70
32
8
45
10
1462095.672
20
5326421.421
30
22.341
0
VERTEX
70
32
8
45
10
1462092.038
20
5326447.569
30
22.341
0
VERTEX
70
32
8
45
10
1462088.702
20
5326471.684
30
22.341
0
VERTEX
70
32
8
45
10
1462095.63
20
5326480.004
30
22.341
0
VERTEX
70
32
8
45
10
1462179.139
20
5326502.887
30
22.341
0
VERTEX
70
32
8
45
10
1462205.128
20
5326508.938
30
22.341
0
SEQEND
8
45
0
POLYLINE
70
8
8
46
62
1
66
1
0
VERTEX
70
32
8
46
10
1462200.381
20
5326566.353
30
22.841
0
VERTEX
70
32
8
46
10
1462148.779
20
5326565.959
30
22.841
0
VERTEX
70
32
8
46
10
1462138.468
20
5326565.412
30
22.841
0
VERTEX
70
32
8
46
10
1462135.024
20
5326565.229
30
22.841
0
VERTEX
70
32
8
46
10
1462124.882
20
5326565.484
30
22.841
0
VERTEX
70
32
8
46
10
1462117.216
20
5326572.798
30
22.841
0
VERTEX
70
32
8
46
10
1462121.914
20
5326572.527
30
22.841
0
VERTEX
70
32
8
46
10
1462128.273
20
5326572.779
30
22.841
0
VERTEX
70
32
8
46
10
1462187.01
20
5326588.171
30
22.841
0
VERTEX
70
32
8
46
10
1462199.763
20
5326607.138
30
22.841
0
SEQEND
8
46
0
POLYLINE
70
8
8
46
62
1
66
1
0
VERTEX
70
32
8
46
10
1462199.5
20
5326645.222
30
22.841
0
VERTEX
70
32
8
46
10
1462176.49
20
5326650.938
30
22.841
0
VERTEX
70
32
8
46
10
1462167.353
20
5326656.857
30
22.841
0
VERTEX
70
32
8
46
10
1462162.679
20
5326662.187
30
22.841
0
VERTEX
70
32
8
46
10
1462165.075
20
5326662.571
30
22.841
0
VERTEX
70
32
8
46
10
1462165.761
20
5326662.954
30
22.841
0
VERTEX
70
32
8
46
10
1462173.559
20
5326667.307
30
22.841
0
VERTEX
70
32
8
46
10
1462175.515
20
5326668.552
30
22.841
0
VERTEX
70
32
8
46
10
1462199.5
20
5326683.817
30
22.841
0
SEQEND
8
46
0
POLYLINE
70
8
8
46
62
1
66
1
0
VERTEX
70
32
8
46
10
1462228.518
20
5326283.932
30
22.841
0
VERTEX
70
32
8
46
10
1462204.774
20
5326288.585
30
22.841
0
VERTEX
70
32
8
46
10
1462197.963
20
5326293.377
30
22.841
0
VERTEX
70
32
8
46
10
1462201.787
20
5326293.272
30
22.841
0
VERTEX
70
32
8
46
10
1462227.725
20
5326292.554
30
22.841
0
SEQEND
8
46
0
POLYLINE
70
8
8
46
62
1
66
1
0
VERTEX
70
32
8
46
10
1462097.694
20
5326368.835
30
22.841
0
VERTEX
70
32
8
46
10
1462063.562
20
5326384.296
30
22.841
0
VERTEX
70
32
8
46
10
1462075.806
20
5326393.863
30
22.841
0
VERTEX
70
32
8
46
10
1462099.422
20
5326412.315
30
22.841
0
SEQEND
8
46
0
POLYLINE
70
8
8
46
62
1
66
1
0
VERTEX
70
32
8
46
10
1462209.402
20
5326463.173
30
22.841
0
VERTEX
70
32
8
46
10
1462203.4
20
5326462.985
30
22.841
0
VERTEX
70
32
8
46
10
1462121.412
20
5326460.417
30
22.841
0
VERTEX
70
32
8
46
10
1462143.122
20
5326486.489
30
22.841
0
VERTEX
70
32
8
46
10
1462190.833
20
5326499.563
30
22.841
0
VERTEX
70
32
8
46
10
1462205.681
20
5326503.02
30
22.841
0
SEQEND
8
46
0
POLYLINE
70
8
8
46
62
1
66
1
0
VERTEX
70
32
8
46
10
1462143.122
20
5326486.489
30
22.841
0
VERTEX
70
32
8
46
10
1462143.122
20
5326486.489
30
22.841
0
SEQEND
8
46
0
POLYLINE
70
8
8
47
62
1
66
1
0
VERTEX
70
32
8
47
10
1462097.893
20
5326373.844
30
23.341
0
VERTEX
70
32
8
47
10
1462075.937
20
5326383.788
30
23.341
0
VERTEX
70
32
8
47
10
1462099.004
20
5326401.812
30
23.341
0
SEQEND
8
47
0
POLYLINE
70
8
8
47
62
1
66
1
0
VERTEX
70
32
8
47
10
1462207.162
20
5326487.153
30
23.341
0
VERTEX
70
32
8
47
10
1462205.664
20
5326487.106
30
23.341
0
VERTEX
70
32
8
47
10
1462185.194
20
5326486.465
30
23.341
0
VERTEX
70
32
8
47
10
1462190.614
20
5326492.975
30
23.341
0
VERTEX
70
32
8
47
10
1462202.526
20
5326496.239
30
23.341
0
VERTEX
70
32
8
47
10
1462206.233
20
5326497.102
30
23.341
0
SEQEND
8
47
0
POLYLINE
70
8
8
47
62
1
66
1
0
VERTEX
70
32
8
47
10
1462190.614
20
5326492.975
30
23.341
0
VERTEX
70
32
8
47
10
1462190.614
20
5326492.975
30
23.341
0
VERTEX
70
32
8
47
10
1462190.614
20
5326492.975
30
23.341
0
SEQEND
8
47
0
POLYLINE
70
8
8
47
62
1
66
1
0
VERTEX
70
32
8
47
10
1462200.302
20
5326571.588
30
23.341
0
VERTEX
70
32
8
47
10
1462140.847
20
5326571.134
30
23.341
0
VERTEX
70
32
8
47
10
1462140.847
20
5326571.134
30
23.341
0
VERTEX
70
32
8
47
10
1462192.314
20
5326584.621
30
23.341
0
VERTEX
70
32
8
47
10
1462199.933
20
5326595.951
30
23.341
0
SEQEND
8
47
0
POLYLINE
70
8
8
47
62
1
66
1
0
VERTEX
70
32
8
47
10
1462199.5
20
5326658.574
30
23.341
0
VERTEX
70
32
8
47
10
1462180.483
20
5326663.298
30
23.341
0
VERTEX
70
32
8
47
10
1462199.5
20
5326675.4
30
23.341
0
SEQEND
8
47
0
POLYLINE
70
8
8
48
62
1
66
1
0
VERTEX
70
32
8
48
10
1462098.092
20
5326378.852
30
23.841
0
VERTEX
70
32
8
48
10
1462088.313
20
5326383.281
30
23.841
0
VERTEX
70
32
8
48
10
1462098.587
20
5326391.309
30
23.841
0
SEQEND
8
48
0
POLYLINE
70
8
8
48
62
1
66
1
0
VERTEX
70
32
8
48
10
1462200.222
20
5326576.823
30
23.841
0
VERTEX
70
32
8
48
10
1462180.843
20
5326576.675
30
23.841
0
VERTEX
70
32
8
48
10
1462180.843
20
5326576.675
30
23.841
0
VERTEX
70
32
8
48
10
1462197.619
20
5326581.071
30
23.841
0
VERTEX
70
32
8
48
10
1462200.102
20
5326584.764
30
23.841
0
SEQEND
8
48
0
ENDSEC
0
EOF
